Loading...
Led Zeppelin logo

Babe I'm Gonna Leave You Led Zeppelin

  • 0
  • Share
  • Transposing
    0
  • Font Size
-------3-------0-------3-------0----------------------------------
---------------------------------------3-------1-------1-------0--
-----2-------2-------0-------0-------2-------2-------2-------1----
---2-------2-------2-------2-------0-------0-------3-------2------
-0-------0--------------------------------------------------------
-----------------3-------3-------2-------2-------1-------0--------

Repeat this a bunch of times, then do the following twice:
------------------------------------
-------3-------1-------3-------0----
-----2-------2-------1-------1------
---3-------3-------2-------2--------
------------------------------------
-1-------1-------0-------0----------

Do the first lick again, except the first high G (i.e. 3rd fret 1st string)
Drops to an E (open 1st string), and the first middle D (3rd fret 2nd string)
Drops to a C (1st fret 2nd string).
The chords in the next section (you know the rhythm):

-0----0----0-----
-1----8----6-----
-2----9----7-----
-2----7----7-----
-0----0----0-----
-----------------

Then back into the first section, and into the second part, then the
Next part 4 times:

------------------------------------
-------5-------8-------8-------6----
-----4-------9-------7-------7------
---2-------9-------7-------7--------
-0-------0-------0-------0----------
------------------------------------

Then the cool hard strumming part (this is really an electric and
An acoustic part: I`ll just give the chords for the acoustic part)

-0-0-0-0-0-0-3-3-3-0-3-3-2-2-2-0-2-2-1-1-1-1-0-0-0-0--
-1-1-1-0-1-1-1-1-1-0-1-1-1-1-1-0-1-1-1-1-1-1-0-0-0-0--
-2-2-2-0-2-2-0-0-0-0-0-0-2-2-2-0-2-2-2-2-2-2-1-1-1-1--
-2-2-2---2-2-2-2-2---2-2-0-0-0---0-0-3-3-3-3-2-2-2-2--
-0-0-0---0-0-------------------------3-3-3-3-2-2-2-2--
-------------3-3-3---3-3-2-2-2---2-2-1-1-1-1-2-2-2-2--

Do this a few times, then there`s a little thing where you just use
The last two chords I wrote (the F and the E): I`m sure you can figure
It out.

Log In to leave a comment

After registration we will return you to the same place
Comments
face-with-monocle
If you wait a bit, some comments may appear here...

Shhh...