Loading...
Kyuss logo

One Inch Man Kyuss

  • 0
  • Share
  • Transposing
    0
  • Font Size
[email protected]

Kyuss - One Inch Man

Tuning: C F A# D# G C

|------------------------|
|------------------------|
|------------------------|
|------------------------|
|-9b11--r9b11r9b11r9~~~~-|
|------------------------|

repeat
|--------------------------------------------||
|--------------------------------------------||
|--------------------------------------------||
|--------------------------------------------||
|-9--9-9-9-9--9--9-9--9--9-9-9-9-9-9-9-9--9--||
|--------------------------------------------||

RIFF A x7
|-----------------------------------||
|-----------------------------------||
|---------12p11---------------------||
|---------------12------------------||
|-9--9-9-----------9--9-9--9--9-9-9-||
|-----------------------------------||

|----------------------------------------|
|----------------------------------------|
|---------12p11--------------9h11--9h11--|
|---------------12-----------------------|
|-9--9-9-----------9--9-9-9--------------|
|----------------------------------------|

PLAY RIFF A x1

|----------------------------------------|
|----------------------------------------|
|---------12p11--------------9h11~~~-----|
|---------------12-----------------------|
|-9--9-9-----------9--9-9-9--------------|
|----------------------------------------|

PLAY RIFF A x3

|----------------------------------------|
|----------------------------------------|
|---------12p11--------------9h11--9h11--|
|---------------12-----------------------|
|-9--9-9-----------9--9-9-9--------------|
|----------------------------------------|

PLAY RIFF A x5

RIFF B
|------------------------------------|
|------------------------------------|
|------------------------------------|
|-7---7-7--7-7-7---9-9-9---10-10-10--|
|-7---7-7--7-7-7---9-9-9---10-10-10--|
|-5---5-5--5-5-5---7-7-7----8--8--8--|

PLAY RIFF A x2
PLAY RIFF B x1
PLAY RIFF A x1

|---------------------------------||-----------------------------------|
|---------------------------------||----------------------------12b13--|
|---------12p11--------------9b10-||---------12p11---------------------|
|---------------12----------------||---------------12------------------|
|-9--9-9-----------9--9-9-9-------||-9--9-9-----------9--9-9-9---------|
|---------------------------------||-----------------------------------|

|--------------------------12b13-|-------------------------------------|
|--------------------------------|-------------------------------------|
|--------12p11-------------------|---------12p11-------------9h11-9h11-|
|--------------12----------------|---------------12--------------------|
|-9--9-9----------9--9-9-9-------|-9--9-9-----------9--9-9-9-----------|
|--------------------------------|-------------------------------------|

x3
|----------------------------------||----------------------------------|
|----------------------------12b13-||----------------------------------|
|---------12p11--------------------||--------12p11---------------------|
|---------------12-----------------||--------------12------------------|
|-9--9-9-----------9--9-9-9--------||-9--9-9----------9--9-9--9--9-9-9-|
|----------------------------------||----------------------------------|

x6
|----------------------------------||---------------------12b14~~~-----|
|----------------------------------||------12b14-----------------------|
|-11p9-11p9-11p9-11p9-11p9-11p9~~~-||-11p9--------9h11p9---------------|
|----------------------------------||----------------------------------|
|----------------------------------||----------------------------------|
|----------------------------------||----------------------------------|

PLAY RIFF B x1
PLAY RIFF A x2
PLAY RIFF B x1

x12
|---------------------------||
|---------------------------||
|---------------------------||
|-4--4-4-4-4-4-4---10--9--7-||
|-4--4-4-4-4-4-4---10--9--7-||
|-2--2-2-2-2-2-2----8--7--5-||

x3
|---------------------------------------------------------------------||
|--------------------13~~-------------------------------------13~~----||
|-11p9-11p9-11p9-11-------11-9~~--11p9-11p9-11p9-11p9-11p9-11-----11~-||
|---------------------------------------------------------------------||
|---------------------------------------------------------------------||
|---------------------------------------------------------------------||

|----------------------------------------------------------------------|
|--------------------13~---------13~--------13b14----------------------|
|-11p9-11p9-11p9-11------11-9~~------11-9~~-------11-9~~---------------|
|----------------------------------------------------------------------|
|----------------------------------------------------------------------|
|----------------------------------------------------------------------|

RIFF C
|------------------------------------|
|------------------------------------|
|-7---7-7--7-7-7---9-9-9---10-10-10--|
|-7---7-7--7-7-7---9-9-9---10-10-10--|
|-5---5-5--5-5-5---7-7-7----8--8--8--|
|-5---5-5--5-5-5---7-7-7----8--8--8--|

PLAY RIFF A x2
PLAY RIFF C X1

x2
|----------------------------------||----------------------------------|
|----------------------------12b13-||----------------------------------|
|---------12p11--------------------||-7---7-7--7-7-7---9-9---10--------|
|---------------12-----------------||-7---7-7--7-7-7---9-9---10---4----|
|-9--9-9-----------9--9-9-9--------||-5---5-5--5-5-5---7-7----8---4----|
|----------------------------------||-5---5-5--5-5-5---7-7----8---2----|

Tablature Key:

|------------- hammer on to 3 |-------------
|--2h3p2------ then pull off |---x-x------- muffled string
|------------- back to 2 |---x-x-------

|------------- pluck 5 then |-------------
|--5b7r5------ bend up until |------------- palm muting
|------------- pitch is equal |-------------
to 7, release to 5 pm..........

|------------- slide along string in |------------- slide to second
|------4s->--- direction of arrow |---5-s-7----- note from first
|------------- |-------------

|-------------
|------5~~~~~- string vibrato
|-------------

Log In to leave a comment

After registration we will return you to the same place
Comments
face-with-monocle
If you wait a bit, some comments may appear here...

Shhh...

Most Popular
You Might Like