Loading...
Kutless logo

Your Touch Kutless

  • 0
  • Share
  • Transposing
    0
  • Font Size
-------------------------------------------------------------------------------
YOUR TOUCH - by Kutless
-------------------------------------------------------------------------------
Selftitled debut 2002
Tooth and nail records
Www.kutless.com
Tabbed by:ted corby
Email: [email protected] or
Www.seven-14.com

Tuning:drop d

Verse (play x 3)
E|------------------|--------------|-----------------------|-----------------|
B|------------------|--------------|-----------------------|-----------------|
G|------------------|--------------|-----------12----------|--------10-------|
D|------5--8p-5---5-|------8-10p-8-|--------10----12----12-|------8----10----|
A|----5---------5---|----8---------|-----10----------10----|----8------------|
D|--5---------------|--8-----------|--10-------------------|--8--------------|

Prechorus w/Riff A Riff A(gtr 2)
E|-------|-------|-------|-------|-------|--------|--------------------------|
B|-------|-------|-------|-------|-------|--------|--5---2/3--2--------------|
G|-------|-------|-------|-------|-------|--------|--------------------------|
D|--1----|--3----|--5----|--1----|--3----|--10----|--------------------------|
A|--1----|--3----|--5----|--1----|--3----|--10----|--------------------------|
D|--1----|--3----|--5----|--1----|--3----|--10----|--------------------------|

Chorus 1st chorus x 2, 2nd chorus x 5, 3rd chorus x 7
E|-------|-------|-------|-----------|---------------------------------------|
B|-------|-------|-------|-----------|---------------------------------------|
G|-------|-------|-------|-----------|---------------------------------------|
D|--5----|--8----|--3----|--1--1--1--|---------------------------------------|
A|--5----|--8----|--3----|--1--1--1--|---------------------------------------|
D|--5----|--8----|--3----|--1--1--1--|---------------------------------------|

Interlude play x 8|(gtr 2)after 4th bar| play x 4 both gtr's
E|-------|-------------|--------------------|--------------------------------|
B|-------|-------------|--------------------|--------------------------------|
G|-------|-------------|--------------------|--------------------------------|
D|-------|-------------|--7-----------------|--0-----------------------------|
A|-------|--3-1--------|--5-----------------|--0-----------------------------|
D|--0----|--------3-5--|--0-----------------|--0-----------------------------|

Fast part of interlude x 15 end
E|----------------|----------------|-----------------------------------------|
B|----------------|----------------|-----------------------------------------|
G|----------------|----------------|-----------------------------------------|
D|--0--0--0--3/5--|--0--0--0--5/3--|--5--------------------------------------|
A|--0--0--0--3/5--|--0--0--0--5/3--|--5--------------------------------------|
D|--0--0--0--3/5--|--0--0--0--5/3--|--5--------------------------------------|

Your touch

VERSE 1
Staring at a blank wall and its white washed face
Not knowing why I had to choose this way
I discern I was wrong in my way
Looking for peace in another domain, another domain

PRECHORUS
And I realize that its true I seek you
And I realize that its true I need you, yes I need you

CHORUS
And I reach and I
Touch you and I know that I need you
To reach out and to touch me and I know
I know that I need your touch

VERSE 2
Not knowing why I ever retreated from Your arms
A mistake a made
Now oh lord I feel your warm embrace, contentment
Fills my soul as joy lights my face

PRECHORUS
CHORUS 2
INTERLUDE
You look into the sky
And see His arms of love reaching out for you
His arms of love and grace
And you know you need Him, you need His touch
I need your, I need your...touch
I was lost but now I'm found...

CHORUS 3
END
===============================================================================

Log In to leave a comment

After registration we will return you to the same place
Comments
face-with-monocle
If you wait a bit, some comments may appear here...

Shhh...

Most Popular
You Might Like