Король и Шут logo

Лютая месть Король и Шут

  • 1
  • Share
  • Transposing
    0
  • Font Size
Король и Шут – Лютая месть
Intro: Em G5 A5 E5 G5 A5

Solo 1:
E5 G5 A5
2---------------------------------------------8------------7h8p7-
3-9---9---7---9---x---x---x--(9)--x--(9)--x---7------------------
4-9---9---7---9---x---x---x--(9)--x--(9)--x----------------------

Куплет:

E5 G5 A5
2--------------------------------------------------8-------7h8p7-
3-9--------------------------------------9----x------------------
Опять ночь без сна,
В окно смотрит луна.

E5 D5
2--------------------------------------------------8-------7h8p7-
3-9--------------------------------------9----x------------------
Наверное, знает она,

C5 B5 G5
2-10--x---8---x---7---x---10--8---x---7---x--------8-------7-----
3----------------------------------------------------------------
го, так му - чают кош - ма - ры!..

E5 G5 A5
2--------------------------------------------------8-------7h8p7-
3-9--------------------------------------9----x------------------
Опять слышу я
Сухой треск огня.

E5 D5
2----------------------------------------------------------------
3-9-----------------------------------7---x--------9-------7-----
И жена кричит моя,

C5 B5 G5
2-10--x---8---x---7---x---10--8---x---7---x--------8-------7-----
3----------------------------------------------------------------
Год назад сгоревшая в кровати.

E5 G5 A5
2--------------------------------------------------8-------7h8p7-
3-9--------------------------------------9----x------------------
Внизу мой сосед,
Его слышен бред.

E5 D5
2--------------------------------------------------8-------7h8p7-
3-9--------------------------------------9----x------------------
Там, в подвале, потухший свет,

C5 B5 G5
2-10--x---8---x---7---x---10--8---x---7---x--------8-------7-----
3----------------------------------------------------------------
Стал причиной очень странной смерти!..

Chorus:
B5 *
Муж рассерженный отомстит,
C5 *
Они честные люди, их Бог простит.
E5 G5 A5 D5 G5 C5 D5
Ревность - это беда, а измена - ерунда!
B5 *
Так устроен наш белый свет:
C5 *
Там, где двое, для третьего места нет.
E5 G5 A5 D5 G5 C5 D5
Только в стенах моих нету места для этих двоих!

E5 G5 A5
2--------------------------------------------------8-------7h8p7-
3-9--------------------------------------9----x------------------
Луна. Ты не спишь.
За мной ты следишь.

E5 D5
2--------------------------------------------------8-------7h8p7-
3-9--------------------------------------9----x------------------
То, что слышу я, ты услышь!

C5 B5 G5
2-10--x---8---x---7---x---10--8---x---7---x--------8-------7-----
3----------------------------------------------------------------
Уничтожь, прошу, все эти звуки!

Chorus:
B5 *
Муж рассерженный отомстит,
C5 *
Они честные люди, их Бог простит.
E5 G5 A5 D5 G5 C5 D5
Ревность - это беда, а измена - ерунда!
B5 *
Так устроен наш белый свет:
C5 *
Там, где двое, для третьего места нет.
E5 G5 A5 D5 G5 C5 D5
Только в стенах моих нету места для этих двоих!

Solo 5:
E5
2----------------------(8)-
3-9---9---7---9------------
Вот мой от-вет
лю- та - я месть!
В до- ме их нет, но
кри- ки их есть

E5 G5 A5 E5 E5 A5
Вот мой ответ лютая месть! В доме их нет, но крики их есть

Log In to leave a comment

After registration we will return you to the same place
Comments
face-with-monocle
If you wait a bit, some comments may appear here...

Shhh...