Loading...
Король и Шут logo

Лесник Король и Шут

  • 3
  • Share
  • Transposing
    0
  • Font Size
Вступление:
Riff 1:
Am F
---------------------------------------------------1)
---------------------------------------------------
---------------------------------------------------
-------------------------------55-33-------55-33---
-------55-77-------55-77---------------------------
-55-88-------55-88-------55-88-------55-88---------6)

Dm G
---------------------------------------------------
---------------------------------------------------
---------------------------------------------------
-55----------55------------------------------------
----88-77-55----88-77-55----------55----------55---
-------------------------33-77-88----33-77-88------

Riff 2:
Am F
--------------------------------------1)
--------------------------------------
--------------------------------------
-----------------------5-3-------5-3--
-----5-7-------5-7--------------------
-5-8-----5-5-8------5-8-----5-5-8-----6)

Dm G
--------------------------------------
--------------------------------------
--------------------------------------
-5-------5-5--------------------------
---8-7-5-----8-7-5--------5---------5-
--------------------3-7-8---3-3-7-8---

Куплет 1:
Am
Замученный дорогой,
F G
Я выбился из сил,
Am
И в доме лесника я
F G
Ночлега попросил,
Am
С улыбкой добродушной
F G
Старик меня впустил
Am
И жестом дружелюбным
F G
На ужин пригласил
Хэй!

D C G

Припев: (Riff 2)
Am
Будь как дома, путник,
F
Я ни в чем не откажу,
Dm
Я ни в чем не откажу,
G
Я ни в чем не откажу,
Am
Множество историй
F
Коль желаешь, расскажу,
Dm
Коль желаешь, расскажу,
G
Коль желаешь, расскажу

Куплет 2:
Am
На улице темнело,
F G
Сидел я за столом,
Am
Лесник сидел напротив,
F G
Болтал о том, о сем,
Am
Что нет среди животных
F G
У старика врагов,
Am
Что нравится ему
F G
Подкармливать волков
Хэй!

D C G

Припев: (Riff 2)
Am
Будь как дома, путник,
F
Я ни в чем не откажу,
Dm
Я ни в чем не откажу,
G
Я ни в чем не откажу,
Am
Множество историй
F
Коль желаешь, расскажу,
Dm
Коль желаешь, расскажу,
G
Коль желаешь, расскажу

Куплет 3:
Am
И волки среди ночи
F G
Завыли под окном,
Am
Старик заулыбался
F G
И вдруг покинул дом,
Am
Но вскоре возвратился
F G
С ружьем наперевес:
Am
"Друзья хотят покушать,
F G
Пойдем, приятель, в лес !"

D C G

Припев: (Riff 2)
Am
Будь как дома, путник,
F
Я ни в чем не откажу,
Dm
Я ни в чем не откажу,
G
Я ни в чем не откажу,
Am
Множество историй
F
Коль желаешь, расскажу,
Dm
Коль желаешь, расскажу,
G
Коль желаешь, расскажу

Log In to leave a comment

After registration we will return you to the same place
Comments
face-with-monocle
If you wait a bit, some comments may appear here...

Shhh...