Korn logo

Pretty Korn

  • 2
  • Share
  • Transposing
    0
  • Font Size
    15
Korn – Pretty
7-string tuned down 1 whole step

Intro/BRIDGE RIFF
[D------------
A------------]
[F------------] GTR.1 (LATER JOINED BY GTR.2)
[C--8--8-8-8--] <-- WAH WAH PEDAL
[G--9--9-9-9--
D--9--9-9-9--
A--7--7-7-7--

D------------------------
A------------------------
F------------------------
C
G-------9-7--------9-10--
D-----9----------9-------
A--7-7-------7-7---------

D------------
A------------
F
C-2--4-------
G-2--4--5-3--
D-0--2--5-3--
A-------3-1--]

Log In to leave a comment

After registration we will return you to the same place
Comments
face-with-monocle
If you wait a bit, some comments may appear here...

Shhh...