Korn logo

No Way Korn

  • 1
  • Share
  • Transposing
    0
  • Font Size
Korn – No Way
(Guitars 1 and 2)
[d------15--14----------------
A--12----------11------------
F----------------------------
C
G----------------------------]
[D----------------------------](With Flanger or Phaser)
(Guitar 1)
[d----------------------------
A
F--5--5--5--5--4-------------
C--5--5--5--5--4-------------
G--3--3--3--3--2-------------]
[D----------------------------](Distortion)
(Guitar 2)
[d--15--15--15--15--14--------
A
F--12--12--12--12--11--------
C
G----------------------------]
[D----------------------------](With Flanger or Phaser)
(Bridge:Part Where Jon Sings..."To live this way...")
(Guitar 1 or 2)
[d--------------------------------------------------------
A
F--4--9--11--7--12--11--4------4--9--11--7--11--12--4----
C
G--------------------------------------------------------]
[D--------------------------------------------------------](Clean)

Log In to leave a comment

After registration we will return you to the same place
Comments
face-with-monocle
If you wait a bit, some comments may appear here...

Shhh...

Versions

Most Popular
You Might Like