Korn logo

Here To Stay Korn

  • 14
  • Share
  • Transposing
    0
  • Font Size
    15
Korn – Here To Stay
If you watch the video, you see Head playing the high parts
And Munky plays the lower parts.

Intro (Munky): Use heavy distortion
[D--------------------------
A--------------------------
F--------------------------
C--------------------------
G--------------------------
D
A-0-1---0-3-1-0-0-1-2------ } x3

D--------------------------
A--------------------------
F--------------------------
C--------------------------
G--------------------------
D
A-0-1---0-3-1-0-0----------]

Intro (Head and Munky): Use heavy distortion
[D--------------------------
A--------------------------
F--------------------------
C
G-2-3---2-5-3-2-2-3-4------
D-2-3---2-5-3-2-2-3-4------
A-0-1---0-3-1-0-0-1-2------] } x7 (I think 7 times)

Verse;Use power chords if you want (Head and Munky):Use distortion
[D-------------------------------------------------
A-------------------------------------------------
F-------------------------------------------------
C
G--------------------2--------------------------1-
D-0-1---0-3-1-0-0-1----------0-1---0-3-1-0-0-1----
A-------------------------------------------------] } Repeat until the verse ends.

Pre-chorus (Head and Munky):
[D--------------------------]
[A--------------------------]<--Every other time you repeat this part,
[F--------------------------]<--you go from 3 to 2 faster. Listen
[C--------------------------]<--and you'll hear
[G--------------------------
D-3------------------------
A---2-0-2-3-2-0-2--0-2-----] } Repeat however many times

Chorus (Head): Distortion and Fast Chorus
[D--------------------------
A
F-16--14---19--21-23-------
C-xx--xx---xx--xx-xx-------
G-14--12---17--19-21-------
D
A--------------------------]

Chorus (Head continued):
[D--------------------------
A
F-16--14--14---------------
C-xx--xx--xx---16--17--14--
G-14--12--12---xx--xx--xx--
D--------------14--15--14--
A--------------------------] } Repeat till verse 2

Chorus (Munky):
[D--------------------------
A--------------------------
F--------------------------
C
G----------5-----2---------
D-2---5----3--5--0--3------
A-0---3-------3-----1------] } Repeat till verse 2

--Repeat Verse and Chorus again--

Interlude (Head):
[D--------------------------
A
F--16--14--19--21--23------
C--xx--xx--xx--xx--xx------
G--14--12--17--19--21------
D--------------------------
A--------------------------

D--------------------------
A
F-16--14--14---------------
C-xx--xx--xx---16--17--14--
G-14--12--12---xx--xx--xx--
D--------------14--15--12--
A--------------------------]

Interlude (Munky):
[D--------------------------
A--------------------------
F--------------------------
C--------------------------
G
D-2------------------------
A-0------------------------] } Let ring until next part

Interlude (Head and Munky):
[D----------------------------------
A----------------------------------
F----------------------------------
C----------------------------------
G
D-----7-----------------7----------]
[A-0-0---0-0-0-0-----0-0-0---0-0-0--]Note: 4 0's the first time, 3 0's the second

Interlude (Head and Munky):This is after Jonathan yells "Bring it down!"
[D--------------------------------------------------
A--------------------------------------------------
F--------------------------------------------------
C--------------------------------------------------
G
D-----7---------7/8/9/10---------7-------7/8/9/10--
A-0-0---0-0-0-0--------------0-0---0-0-0-----------]
The rest of the song is just playing the Chorus and Verse of the song

Log In to leave a comment

After registration we will return you to the same place
Comments
face-with-monocle
If you wait a bit, some comments may appear here...

Shhh...