КняZz logo

Русский дух КняZz

  • 0
  • Share
  • Transposing
    0
  • Font Size
КняZz – Русский дух
Solo #1
|-------------------------------------------------------------------------------
|-------------------------------------------------------------------------------
|--9-10---0----10-9-10------10-9-10--7--10-9-10-12-10-9-10-0-
|---------7------------------7-------------------------------------------------
|-------------------------------------------------------------------------------
|-------------------------------------------------------------------------------

Solo #2
|-------------------------------------------------------------------------------
|-------------------------------------------------------------------------------
|0----10-9-10-----10-9-10--7--10-9-10—5-777-10-9--------------
|-----------------7------------------------------------------------7-----------
|-------------------------------------------------------------------------------
|-------------------------------------------------------------------------------

Вступление: Gm A Dm

Dm
Русь!
A
Как опрометчиво зарился враг
На твои земли.
A#
Забрали ветра
Gm
Надежды, обращенные в прах,
E A
И в пламени костра

Вновь
Читаю мысли я предков своих,
Святую ярость на русской земле
Могли обрушить в полях родных
На тех, кто шел извне.

Припев:

Dm
И земля героев помнит,
Gm A# A
И огонь не затух,
Dm
И отвагой грудь наполнит
Gm
Русский дух.
A# A
Русский дух.

Хоть многострадальна,
Но ни перед кем
Ты не дрожала, во все времена
Страх презирая, ждала перемен,
Вкусила бед сполна.
Русь!
Растила ты сыновей для борьбы,
Познала радость великих побед.
Во славу предков на подвиги мы
Прольем потомкам свет.

Log In to leave a comment

After registration we will return you to the same place
Comments
face-with-monocle
If you wait a bit, some comments may appear here...

Shhh...