Loading...
Klank logo

Disease Klank

  • 0
  • Share
  • Transposing
    0
  • Font Size
Http://www.klank.net

Klank - Disease
Submitted By: Schecter Man

Tabber: John Cukras
Emai: [email protected]

Riff 1:
E------------------------------
B------------------------------
G------------------------------
D------------------------------
A-33-33-44-44-22-22-11-11-22---
E-33-33-44-44-22-22-11-11-22---
Pm.. .. .. .. .. .. .. .. ..

Riff 2:
E---------------------------------
B---------------------------------
G---------------------------------
D-----5 /8-----5/8-----5/8---------
A-----3 /6-----3/6-----3/6-----4/3-
E-000-----000-----000-----000-2/1-
Pm... ... ... ...

Riff 3:
E------------------------------
B------------------------------
G------------------------------
D-------2-----------2----------
A-4--5--2--5--4--5--2--4-------
E-2--3--0--3--2--3--0--2-------

Riff 4:
E------------------------------
B------------------------------
G------------------------------
D------------------------------
A-33-33-22-22-33-33-22-22------
E-33-33-22-22-33-33-22-22------
Pm.. .. .. .. .. .. .. ..

Riff 5:
E------------------------------
B------------------------------
G------------------------------
D------------------------------
A-77-7 /8-99-9/8-77-7/8-99-10---
E-55-5 /6-77-7/6-55-5/6-77-8----

Riff 6:
E------------------------------
B------------------------------
G------------------------------
D------------------------------
A------------------------------
E-55-6-77-6-55-6-77-8----------
Pm.. . .. . .. . .. .

Riff 7:
E------------------------------
B------------------------------
G------------------------------
D------------------------------
A-77-99-10-99-88-99-10-9-------
E-66-77-88-77-66-77-88-7-------

Log In to leave a comment

After registration we will return you to the same place
Comments
face-with-monocle
If you wait a bit, some comments may appear here...

Shhh...

Most Popular
You Might Like