Loading...
Kiss logo

Firehouse Kiss

  • 0
  • Share
  • Transposing
    0
  • Font Size
Intro 7x
E-----------------------------|----|---------------------------|
B-2-3-5-3-2-3-2-7-8-7-8-7-8-7-|-10-|-2-3-5-3-2-3-2-------------|
G-2-2-4-2-2-2-2-7-7-7-7-7-7-7-|--9-|-2-2-4-2-2-2-2-7^~~~7^~~~~-|
D-2-4-6-4-2-4-2-7-9-7-9-7-9-7-|--7-|-2-4-6-4-2-4-2-------------|
A-0-------0---0---------------|----|-0-------0---0-------------|
E-----------------------------|----|---------------------------|

E---------------------2323232------------------------23232232---|
B---------------------3333333-10---------------------33333333-2-|
G---------------------2322222--9---------------------22222222-2-|
D------------------------------7------------------------------2-|
A-------------------------------------------------------------0-|
E-5-3-0-3-0-5-3-0-3-0------------5-3-0-3-0-5-3-0-3-0------------|

E---x---x-323232--|---x----x-323232------------------------------------
B-2-x-2-x-3333332-|-2-x--2-x-3333332-11^11^11^11^r9h11-----------------
G-2-x-2-x-2222222-|-2-x--2-x-2222222------------------10^10^10^10^10^--
D-2-x-2-x-------2-|-2-x--2-x-------2-----------------------------------
A-0-x-0-x-------0-|-0-x--0-x-------0-----------------------------------
E---x---x---------|-x----x---------------------------------------------

E------------------------------|---x-------------323232---|-----------------
B-------7-----6-----5----3-3-8-|-2-x--2----------333333-2-|11^11^11^11^r9h11
G-8~~--------------------2-2-7-|-2-x--2--4-4-2---222222-2-|-----------------
D-----/8---7-----6-----5-4-4-9-|-2-x--2--------4--------2-|-----------------
A------------------------------|-0-x--0-----------------0-|-----------------
E------------------------------|---x----------------------|-----------------

[ 2 x ]
E-------------------------6------7------8----------|------------------232323
B--------------------------------------------3-3-8-|------------------333333
G-10^10^10^10^10^r8~~-/7-----8------9------9-2-2-7-|------------------222222
D--------------------------------------------4-4-9-|------------------------
A--------------------------------------------------|------------------------
E--------------------------------------------------|-5-3-0-3-0--------------

E-2-----------------------2323232-------------------------------------------
B-3-2---------------------3333333-2-----------------------------------------
G-2-2---------------------2222222-2----------9--9-9---10--10-10---12--12-12-
D---2-----------------------------2-9--9-9---9--9-9---10--10-10---12--12-12-
A---0-----------------------------0-9--9-9---7--7-7----8---8--8---10--10-10-
E-----5-3-0-3-0-5-3-0-3-0-----------7--7-7----------------------------------

Solo
3x 2x
E-----------|------------------------------------------|-----------------|
B-----------|------------------------------------------|-----------------|
G-7^x7^x7^x-|-7-7--------------5~~---------------------|-----------------|
D-----------|-----5~~~-----5-7-----7-5---5-7-----------|---5-5--5-5--5-7-|
A-----------|----------5-7-------------7-----x6-x5-x3--|-7---------------|
E-----------|------------------------------------------|-----------------|

E--------------------------------|-----------------------|------------------
B-----------------------------8~-|-8-8--8-8--8-8--8-8----|------------------
G-7^--7-7--7-7--7-7--7-7--5~~----|--------------------5~-|---------------5-5
D--------------------------------|-----------------------|--------5-5--7----
A--------------------------------|-----------------------|-5-5--7-----------
E--------------------------------|-----------------------|------------------

E-------------------------------------------------|-------------------------
B---------------------5-7-----5-8-6-8^~~~-8-5-----|-------------------------
G---------5-7-----5-7-----5-7-----------------8-5-|-9~---11~--12~--12-10-13~
D-----5-7-----5-7---------------------------------|---9~---9~---10~---------
A-5-7---------------------------------------------|-------------------------
E-------------------------------------------------|-------------------------

[ 2x ]
E----------------------------------------------------3-2-3-2-3-2------------
B--2-3-5-3-2-3-2-7-8-7-8-7-8-7-----------------------3-3-3-3-3-3------------
G--2-2-4-2-2-2-2-7-7-7-7-7-7-7-7-5-------------------2-2-2-2-2-2------------
D--2-4-6-4-2-4-2-7-9-7-9-7-9-7----7--5--------------------------------------
A--0-------0---0----------------------5-7-----------------------------------
E-----------------------------------------5-3-0-3-0---------------5-3-0-3-0-

E----------------------------------------------------------||
B--------------------10-----------------------------10-----||
G---------------------9------------------------------9-----||
D---4\\\\5/4-2---2\\\\5--2--7------------4\\\\5/4-2---2\\\\5--2--7-||
A-----------5------------------------------5---------------||
E-0----------------------5-3-0-3-0-------------------------||

Log In to leave a comment

After registration we will return you to the same place
Comments
face-with-monocle
If you wait a bit, some comments may appear here...

Shhh...