• 0
  • Share
  • Font Size
King Crimson – Lizard
Piano, Vocals, Sounds 0:50
G---|-----------------------|-------------------|-------------------|--16\\14----
D---|-----------------------|---------11--------|---------16--------|-----------
A---|-----------------------|--12---------------|--14---------------|-----------
E---|-----------------------|-------------------|-------------------|-----------

G----------------|--16\\14----------------|--16\\14----------------|--16p14-------
D------12--------|---------14------------|---------14------------|--------------
A----------------|-------------12--------|-------------12--------|--------------
E----------------|-----------------------|-----------------------|--------------

G---------------------|--16\\14---------------|--16\\14---------------------------
D---16---------12-----|------------12--------|---------14-----------------------
A-------14------------|----------------------|-------------12-------------------
E---------------------|----------------------|----------------------------------

Piano, Guitar, Vocals 1:57
G---|-----------------------|--16\\14----------------|---------------------------
D---|-----------------------|---------14------------|------12---------16--------
A---|-----------------------|-------------12--------|--14---------14------------
E---|-----------------------|-----------------------|---------------------------

G---16-----|--16\\14----------------|--------------------------------------------
D----------|---------14--12--------|--------------------------------------------
A----------|-----------------------|--12------------12---------12---------12----
E----------|-----------------------|---------12---------12---------12-----------

G---|-------------------|-----------------14-----16-----|--16\\14----------------
D---|---------14--------|------16-----------------------|---------14--12--------
A---|--12---------------|--14---------14----------------|-----------------------
E---|-------------------|-------------------------------|-----------------------

2:19
G------|--16\\14----------------|------------------------------------------|-----
D------|---------14------------|------------------------------------------|-----
A------|-------------12--------|--12------------12---------12---------12--|-----
E------|-----------------------|---------12---------12------------12------|-----

G--------------------------------|-----------------------14-----|--16\\14--------
D--------------------------------|----------------12------------|---------14----
A---12h14---------14---------14--|--14-----12-------------------|---------------
E-------------14---------14------|------------------------------|---------------

G--------------|----------------------------------|-----------------16----------
D--------------|---------14---------14-----14-----|------16---------------------
A---12---------|--12------------12----------------|--14---------14--------------
E----------12--|----------------------------------|-----------------------------

G------------------|--14------------16\\14----------|----------------------------
D---16-------------|---------12------------14--12--|--14------------------------
A----------14--14--|-------------------------------|------12--0--------0--------
E------------------|-------------------------------|----------------------------

2:40
G---|-----------------|-----------------|-----------------|---------------------
D---|--7--------------|-----------------|--7--------------|-----------7---------
A---|-----------------|--0-----------7--|-----------------|--8------------------
E---|-----------------|-----------------|-----------------|---------------------

G---|-----------------|-----------------|-----------------|--------------10-----
D---|-----------------|--7--------------|-----------------|---------------------
A---|--0--------------|-----------8-----|--7--------------|---------------------
E---|-----------------|-----------------|-----------------|---------------------

G---|--9--------------|--7-----------10--|--9--------------|--10----------------
D---|-----------------|------------------|-----------------|------------10------
A---|-----------------|------------------|-----------------|--------------------
E---|-----------------|------------------|-----------------|--------------------

G------|-----------------|-----------------|-----------------|------------------
D------|-----------------|-----------------|-----------------|------------------
A------|--0--------------|--0--------------|--7--------------|--0---------------
E------|-----------------|-----------------|-----------------|------------------

3:29
G------|-----------9h10------9--|--9--------------|-----------------|-----------
D------|-----------------10-----|-----------------|-----------------|-----------
A------|--0---------------------|-----------------|--5--------------|--7--------
E------|------------------------|-----------------|-----------------|-----------

G------------|-----------------|--------9--------|--7--------------|------------
D------------|-----------------|--7--------------|--------------7--|------------
A------------|--8--------------|-----------------|-----------------|--7---------
E------------|-----------------|-----------------|-----------------|------------

G------------|-------------------|-----------------|-----------------9--|-------
D------------|-------------------|-----------------|--------7-----------|--7----
A------------|--(7)--------------|--0--------------|--5-----------------|-------
E------------|-------------------|-----------------|--------------------|-------

G---------------|--10---------------|-----------------|-----------------|-------
D---------------|---------------10--|--7--------------|-----------------|-------
A---------------|-------------------|-----------------|--0--------------|--7----
E---------------|-------------------|-----------------|-----------------|-------

G---------------|--9--------------|-----------------|--9-----------9-----|------
D---------------|-----------------|-----------------|-----------9--------|------
A---------------|-----------------|--7--------------|--------------------|------
E---------------|-----------------|-----------------|--------------------|------

G---9-----------10p9--------|-----------------|-----------------|---------------
D---------9-----------10p9--|--------------2--|-----------------|--7------------
A---------------------------|--0--------0-----|--0--------------|---------------
E---------------------------|-----------------|-----------------|---------------

G---------||--------------------------------------------------------------------
D---------||--------------------------------------------------------------------
A---------||--------------------------------------------------------------------
E---------||--------------------------------------------------------------------

Log In to leave a comment

After registration we will return you to the same place
Comments
face-with-monocle
If you wait a bit, some comments may appear here...

Shhh...

Versions

Most Popular
You Might Like