Loading...
King Adora logo

Weather King Adora

  • 0
  • Share
  • Transposing
    0
  • Font Size
King Adora – Weather
E|-----------------------------------------------------------------------------|
B|-----------------------------------------------------------------------------|
G|----12-12-12-12-12-12-12-12-12---11-11-11-11-11-11-11----12-12-12-12-12-12-12|
D|-----------------------------------------------------------------------------|
A|-----------------------------------------------------------------------------|
E|-----------------------------------------------------------------------------|
C'mon, kids get yourself real -- high, be young forever -- love, go
Douse your..

E|-----------------------------------------------------------------------------|
B|-----------------------------------------------------------------------------|
G|-12-12-12---11-11-11-11-11-11-11--11-11---------------------------9999999999-|
D|--------------------------------------------9-9-9-7-9-9-9-7-------9999999999-|
A|------------------------------------------------------------------7777777777-|
E|-----------------------------------------------------------------------------|

..hair in -- dye, be young,be young, be -- mine, my love, this --
Time, stay..

E|-----------------------------------------------------------------------------|
B|-----------------------------------------------------------------------------|
G|-9999999999999999-------------------9999999999999999--12-12-12-12-12-11-11-11|
D|-9999999999999999--9-9-9-7-9-9-9-7--9999999999999999-------------------------|
A|-7777777777777777-------------------7777777777777777-------------------------|
E|-----------------------------------------------------------------------------|

..close to what you are, my love, i shine, in you i am
Entwiiiiiiii---------ned...

They'll never change us, or rearrange us,forever changing me...
C5 E5 C5 E5

The Weather changes, and rearranges,they're never changing...
C5 E5 C5

E|-----------------------------------------------------------------------------|
B|-----------------------------------------------------------------------------|
G|-12-12-12-12-12-12--12-11-9-7-7-7-7-7-5-7-7-7-7-7----------------------------|
D|-----------------------------------------------------------------------------|
A|-----------------------------------------------------------------------------|
E|-----------------------------------------------------------------------------|

...me

C'mon, rejection sucks you off, be young be young, believe, my love, i
Bleed, in every word
B5 (1 strum) E5 (1 strum) (same as 1st verse)

..you breathe, yeah

Repeat chorus

End of 2nd chorus

They're never changing me (under sampled bit,listen 4 timing)
A5(1 strum) D5 (1 strum) x2

Then play A5 repeatedly before.....

Solo

E|-----------------------------------------------------------------------------------|
B|---------------------------------------10-10-12------------------------------------|
G|----------------11-11-12---------------------------11-11-11-11-11-12-11-9-7-7-5-7--|
D|---5-5-5-5-5-5-------------7-7-7-7-7-7---------------------------------------------|
A|---5-5-5-5-5-5-------------7-7-7-7-7-7---------------------------------------------|
E|---3-3-3-3-3-3-------------5-5-5-5-5-5---------------------------------------------|

E|-------------------------------------------------------------------------------|
B|-12-12-10-12-12-12-12-12-------------------------------------------------------|
G|--------------------------------7---7-------------------------------------7----|
D|------------------------------9---9---9--9--9--7--9--9--9--7------------9------|
A|-------------------------------------------------------------------------------|
E|-------------------------------------------------------------------------------|
my love, be young be young, be us, my love,
I know..

E|-----------------------------------------------------------------------------|
B|-----------------------------------------------------------------------------|
G|-----------------------------------------------------------------------------|
D|----7-----------------11-11--12-12-11-9-7-7----------------------------------|
A|--9----------------10----------------------7---------------------------------|
E|-----------------------------------------------------------------------------|

..without you i am nothing...

Repeat chorus, then end on E5.

Log In to leave a comment

After registration we will return you to the same place
Comments
face-with-monocle
If you wait a bit, some comments may appear here...

Shhh...

Most Popular
You Might Like