King Adora logo

Suffocate King Adora

  • 1
  • Share
  • Transposing
    0
  • Font Size
King Adora – Suffocate
INTRO

Intro - Guitar 1:

Bm A
E|------------------------------------------------------------
B|------------------------------------------------------------
G|-----11------11-----11-----11-----11------------------------
D|--9------9-9----9-9----9-9----9-9----9-----11-----11-----11-
A|---------------------------------------0------0-0----0-0----
E|------------------------------------------------------------

E|-------------------
B|-------------------
G|-------------------
D|------11-----11----
A|--0-0----0-0----0--
E|-------------------

Bm A
E|------------------------------------------------------------
B|------------------------------------------------------------
G|-----11------11-----11-----11-----11--------14--------14----
D|--9------9-9----9-9----9-9----9-9----9-s12------12-12-------
A|------------------------------------------------------------
E|------------------------------------------------------------

E|---------------------
B|--------14b16r14-----
G|-----------------14--
D|--12-12--------------
A|---------------------
E|---------------------

Bm
E|----------------------------------------
B|----------------------------------------
G|-----11------11-----11-----11-----11----
D|--9------9-9----9-9----9-9----9-9----9--
A|----------------------------------------
E|----------------------------------------
Whatever made you....

Intro - Guitar 2:

E [------------------------------------------------------------------]
B [------------------------------------------------------------------]
G [--------------6------------6-7-6-----6-7-6------------------------]
D [----9-9--7-9-----9-9-7--9---------7---------7-7-------------------]
A [------------------------------------------------------------------]
E [------------------------------------------------------------------]

E [------------------------------------------------------------------]
B [------------------------------------------------------------------]
G [--------------6------------6-7-6-----6-7-6------------------------]
D [----9-9--7-9-----9-9-7--9---------7---------7-7-------------------]
A [------------------------------------------------------------------]
E [------------------------------------------------------------------]

E [------------------------------------------------------------------]
B [------------------------------------------------------------------]
G [--------------6------------6-7-6-----6-7-6-----9------------------]
D [----9-9--7-9-----9-9-7--9---------7---------7---------------------]
A [------------------------------------------------------------------]
E [------------------------------------------------------------------]

Whatever....

VErSE 1

Verse 1 - Guitar 1:

Bm G
E|------------------------------------
B|------------------------------------
G|--7-----7-----7-----7------4--4--4--
D|--9-7-7-9-7-7-9-7-7-9-7-7--5--5--5--
A|--9-7-7-9-7-7-9-7-7-9-7-7--5--5--5--
E|--7-----7-----7-----7------3--3--3--
Another ghost...
Bm G
E|-------------------------------------
B|-------------------------------------
G|--7-----7-----7-----7-------4--4--4--
D|--9-7-7-9-7-7-9-7-7-9-7-7---5--5--5--
A|--9-7-7-9-7-7-9-7-7-9-7-7---5--5--5--
E|--7-----7-----7-----7-------3--3--3--

D A
E|----------------------
B|----------------------
G|--7--7-7-7--6--6-6-6--
D|--7--7-7-7--7--7-7-7--
A|--5--5-5-5--7--7-7-7--
E|------------5--5-5-5--

Bm
whatever made you want me

Bm G
another ghost i swear you are

Whatever made you haunt me

Bm G
and oh so close and oh so far

And i will feel like you

D A
and always breathe like you

Verse 1 - Guitar 2

Bm G
E [--------------------------------------------------------------]
B [--------------------------------------------------------------]
G [--------------------------------------------------------------]
D [-9-9--x-9-9--x-9-9--x-9-9--9-9-9-9-/5-5-5-5--5-5-5-5----------]
A [-9-9--x-9-9--x-9-9--x-9-9--9-9-9-9-/5-5-5-5--5-5-5-5----------]
E [-7-7--x-7-7--x-7-7--x-7-7--7-7-7-7-/3-3-3-3--3-3-3-3----------]

Bm G
E [------------------------------------------------------------]
B [------------------------------------------------------------]
G [------------------------------------------------------------]
D [-9-9--x-9-9--x-9-9--x-9-9-----5-5---5-5-5-5---5-5-5---5-5---]
A [-9-9--x-9-9--x-9-9--x-9-9-----5-5---5-5-5-5---5-5-5---5-5---]
E [-7-7--x-7-7--x-7-7--x-7-7-----3-3---3-3-3-3---3-3-3---3-3---]

D A
E [-----------------------------]
B [-----------------------------]
G [-7-7---7-7-7-----------------]
D [-7-7---7-7-7-7---7-7-7---7-7-]
A [-5-5---5-5-5-7---7-7-7---7-7-]
E [-------------5---5-5-5---5-5-]

CBoRUS

Bm G
Be always

D A
It's you and me forever

Bm G
Be always

D A
We'll suffocate each other

Chorus - Guitar 2

Bm G D A
E [-------------------------------------------------------------------]
B [-------------------------------------------------------------------]
G [-----------------------------------7---7---7-7-7-------------------]
D [--9-9-9-9--------5---5-5-5---5-5---7---7---7-7-7---7---7-7-7---7-7-]
A [--9-9-9-9--------5---5-5-5---5-5---5---5---5-5-5---7---7-7-7---7-7-]
E [--7-7-7-7--------3---3-3-3---3-3-------------------5---5-5-5---5-5-]

VErSE 2

Whatever happened to us
I love the ghost that you've become
Whatever cut right through us
My lover knows real love dies young
I will bleed for you
I'll always bleed for you

CBoRUS

Be always
It's you and me forever
Be always
We'll suffocate each other

BrIDGE

Bridge - Guitar 1:

Bm A
E|------------------------------------------------------------
B|------------------------------------------------------------
G|-----11------11-----11-----11-----11------------------------
D|--9------9-9----9-9----9-9----9-9----9-----11-----11-----11-
A|---------------------------------------0------0-0----0-0----
E|------------------------------------------------------------

E|-------------------
B|-------------------
G|-------------------
D|------11-----11----
A|--0-0----0-0----0--
E|-------------------

Bm
E|---------------------------------------------
B|---------------------------------------------
G|-----11------11-----11-----11-----11---11s0--
D|--9------9-9----9-9----9-9----9-9----9--9s0--
A|---------------------------------------------
E|---------------------------------------------

While sliding strum the power chord

Bridge - Guitar 2:

E [------------------------------------------------------------------]
B [------------------------------------------------------------------]
G [--------------6------------6-7-6-----6-7-6------------------------]
D [----9-9--7-9-----9-9-7--9---------7---------7-7-------------------]
A [------------------------------------------------------------------]
E [------------------------------------------------------------------]

E [------------------------------------------------------------------]
B [------------------------------------------------------------------]
G [--------------6------------6-7-6-----6-7-6------------------------]
D [----9-9--7-9-----9-9-7--9---------7---------7-7-------------------]
A [------------------------------------------------------------------]
E [------------------------------------------------------------------]

Solo:
-----

E|------------------------------------------------------------
B|--------------14-------------14-14b16r14----14b16r14--------
G|--16-16-14-16----16-16-14-16-------------14----------14-----
D|------------------------------------------------------------
A|------------------------------------------------------------
E|------------------------------------------------------------

E|-----------------------------------------------------12-----
B|--------------14-------------14-14b16r14----14b16r14--------
G|--16-16-14-16----16-16-14-16-------------14-----------------
D|------------------------------------------------------------
A|------------------------------------------------------------
E|------------------------------------------------------------

E|--14-14-12-14-12-14-14-12-14-12-----------------------------
B|--------------------------------14b16r14----12-15----12-15--
G|-----------------------------------------11-------11--------
D|------------------------------------------------------------
A|------------------------------------------------------------
E|------------------------------------------------------------

E|---------------------
B|-----12-15----12-15--
G|--11-------11--------
D|---------------------
A|---------------------
E|---------------------

Chorus
------

Be always
It's you and me forever
Be always
We'll suffocate each other

OUTRO

Play chorus sequence (Bm, G, D, A)

Guitar 1

Bm
E|----------------------------------------
B|----------------------------------------
G|-----11------11-----11-----11-----11----
D|--9------9-9----9-9----9-9----9-9----9--
A|----------------------------------------
E|----------------------------------------
Whatever made you....

Guitar 2

Bm
E [------------------------------------------------------------------]
B [------------------------------------------------------------------]
G [--------------6------------6-7-6-----6-7-6------------------------]
D [----9-9--7-9-----9-9-7--9---------7---------7-7-------------------]
A [------------------------------------------------------------------]
E [------------------------------------------------------------------]
Whatever....

Whatever made you want me

Log In to leave a comment

After registration we will return you to the same place
Comments
face-with-monocle
If you wait a bit, some comments may appear here...

Shhh...