King Adora logo

Depression King Adora

  • 0
  • Share
  • Transposing
    0
  • Font Size
King Adora – Depression
Tuning (D A D G B D)

Intro:

Guitar 1

D[-----------5---------------------]
B[---------------------------------]
G[-----5-----------5-----5---4-----]
D[-/-7-----7-----7-----7---------5-] x3
A[---------------------------------]
D[---------------------------------]

D[-5b6---5----------------------------------------------------]
B[------------------------------------------------------------]
G[---------5---4-5-4---4-5---7b8---7------------------7b8-8r7-]
D[-------------------7---------------7---7-9-9b10r9-7---------]
A[------------------------------------------------------------]
D[------------------------------------------------------------]

Guitar 2

D[---------------------------------------------------------------]
B[---------------------------------------------------------------]
G[---------------------------------------------------------------]
D[-7-7---7-7---7-7---7-7---7---7---3-3---3-3---3-3---3-3---3---3-]
A[-7-7---7-7---7-7---7-7---7---7---3-3---3-3---3-3---3-3---3---3-]
D[-7-7---7-7---7-7---7-7---7---7---3-3---3-3---3-3---3-3---3---3-]

D[---------------------------------------------------------------]
B[---------------------------------------------------------------]
G[---------------------------------------------------------------]
D[-0-0---0-0---0-0---0-0---0-2-3---3-3-3---3-3-5---5-5-5---5-5-5-]
A[-0-0---0-0---0-0---0-0---0-2-3---3-3-3---3-3-5---5-5-5---5-5-5-]
D[-0-0---0-0---0-0---0-0---0-2-3---3-3-3---3-3-5---5-5-5---5-5-5-]

Verse:

Guitar 2

D[-----------------------------------------------------------------]
B[-----------------------------------------------------------------]
G[-----------------------------------------------------------------]
D[-7---7---7-7-7-6---6---6---6-6-6-5---5---5-5-5-4---4---4---4-4-4-]
A[-7---7---7-7-7-6---6---6---6-6-6-5---5---5-5-5-4---4---4---4-4-4-]
D[-7---7---7-7-7-6---6---6---6-6-6-5---5---5-5-5-4---4---4---4-4-4-]

D[---------------------------]
B[---------------------------]
G[---------------------------]
D[-3---3-3-0---0-0-3---3-3-0-]
A[-3---3-3-0---0-0-3---3-3-0-]
D[-3---3-3-0---0-0-3---3-3-0-]

I've only added itnro and verse so far as
Only the demo version is available so far
I'll finish off the tab once i get the rest of the song

Please do not take this tab for your own websites
Without permission. Email:[email protected]

Log In to leave a comment

After registration we will return you to the same place
Comments
face-with-monocle
If you wait a bit, some comments may appear here...

Shhh...