King Adora logo

Big Isnt Beautiful King Adora

  • 0
  • Share
  • Transposing
    0
  • Font Size
King Adora – Big Isnt Beautiful
Song - Big isnt beautiful
Artist - King Adora
Album - Vibrate you
Tabbed by - rose williams ([email protected])

Each note I’ve written once, play four times.

Verse/intro
G --------------------
D --------------------
A ----2---3---0-------
E -3------------------

Chorus
G ---------------------------
D ----0--------------0-------
A 3----------3----3-----2---- (repeat)
E -------3-------------------

D 1--1--3--3

Bridge
G --------------------------------------------------------
D ----------------0---2---0----0---2--------0---2---0----3
A ----------------------0-------------0--0--------0---3---
E 0--0--0--0----------------------------------------------

Log In to leave a comment

After registration we will return you to the same place
Comments
face-with-monocle
If you wait a bit, some comments may appear here...

Shhh...