Loading...
Killswitch Engage logo

When Darkness Falls Killswitch Engage

  • 0
  • Share
  • Transposing
    0
  • Font Size
Song: When Darkness Falls
Artist: Killswitch Engage
Album: Freddy VS Jason Soundtrack
Tabbed by: Christian / [email protected]

PM - Palm mute
- Pinch harmonic + Vibrato
- Slide down
/ - Slide up
X - Mute string
~ - Vibrato

Tuning: C G C F A D

Intro/verse
|--------------------------------------------------------------------------------------------------------------|
|--------------------------------------------------------------------------------------------------------------|
|--------------------------------------------------------------------------------------------------------------|
|--------------------------------------------8888-7777---------------------------------------------------------|
|4---3---5-4---4---3---5-4---4---3---5-4---4-7777-6666-4---3---5-4---4---3---5-4---4---3---5-4---4--0-0-4-3-|
|4-0-3-0-5-4-0-4-0-3-0-5-4-0-4-0-3-0-5-4-0-4-----------4-0-3-0-5-4-0-4-0-3-0-5-4-0-4-0-3-0-5-4-0-4--0-0-4-3----|
PM - - - - - - - - - - - - - - - - - - - - - -

|--------------------------------------------------------|
|--------------------------------------------------------|
|--------------------------------------------------------|
|--------------------------------------------------------|
|-12--4---3---5-4---4---4---3---5-4---4---4-5-4-3-0--|
|-12--4-0-3-0-5-4-0-4---4-0-3-0-5-4-0-4---4-5-4-3-0-----|
PM - - - - - - - - - - -

|---------------------------------------------------------------|
|---------------------------------------------------------------|
|---------------------------------------------------------------|
|---------------------------------------------------------------|
|-4---3---5-4---4---------4---3---5-4---4---------4-5-4-3-0-----|
|-4-0-3-0-5-4-0-4-0-0-0-0-4-0-3-0-5-4-0-4-0-0-0-0-4-5-4-3-0--|
PM - - - - - - - - - - - - - - - - - - -

Pre-Chorus
|--------------------------------------------------------------------------------------|
|--------------------------------------------------------------------------------------|
|-9/10-10-10--9/10-10-10--9/10-10-10--9/10-10-10--109-9-9--109-9-9--9/10-10-10--7-7--|
|--------------------------------------------------------------------------------------|
|-7/-8--8--8--7/-8--8--8--7/-8--8--8--7/-8--8--8---87-7-7---87-7-7--7/-8--8--8--5-5--|
|--------------------------------------------------------------------------------------|

|-----------------------------------------------------------------------------------------------------|
|-----------------------------------------------------------------------------------------------------|
|-12/14-14-14--12/14-14-14--14/17-17-17--14/17-17-17--1412-12-12--1412-12-12--127-7-7--7-7-7-7-7-7-|
|-----------------------------------------------------------------------------------------------------|
|-10/12-12-12--10/12-12-12--12/15-15-15--12/15-15-15--1210-10-10--1210-10-10--105-5-5--5-5-5-5-5-5-|
|-----------------------------------------------------------------------------------------------------|

Chorus - Guitar 1
|-------------------------------------------------------|
|-------------------------------------------------------|
|-3--3--3--5-----------5--3--3--3--5--------------------|
|-3--3--3--5--0--0--0--5--3--3--3--5--0--0--------------|
|-1--1--1--3--0--0--0--3--1--1--1--3--0--0--0-3-3-0-5-3-|
|-------------0--0--0-----------------0--0--0-3-3-0-5-3-|
PM - - - - - -

Chorus - Guitar 2
|------------12------------------11-----|
|--------11------11----------10------10-|
|-9--10---------------9--10-------------|
|---------------------------------------|
|---------------------------------------|
|---------------------------------------|

Fill
|---------------------------------|
|---------------------------------|
|---------------------------------|
|---------------------------------|
|-4---3---5-4---4---4-5-4-3-0--|
|-4-0-3-0-5-4-0-4---4-5-4-3-0-----|
PM - - - - - - - -

Breakdown - Guitar 1
|--------------------------------|
|--------------------------------|
|--------------------------------|
|--------------------------------|
|-0-0-0-0-0-1-0--0-3-4-3-0-2-3-2-|
|-0-0-0-0-0-1-0--0-3-4-3-0-2-3-2-|
PM- - - - - - - - - - - - - - -

Breakdown - Guitar 2
|------------------|
|------------------|
|------------------|
|------------------|
|------------------|
|-/////X-----------|

Both Guitars
|---------------------------------------------------------------|
|------------------------------------------------6h8p6----------|
|------------------------------------------------------8-7-5-7~-|
|---------------------------------------------------------------|
|-0-----0---1-0--0-3-4-3-0-2-3-2--0-----0---1-0-----------------|
|-0-0-0-0-0-1-0--0-3-4-3-0-2-3-2--0-0-0-0-0-1-0-----------------|
PM - - - - - - - - - - - - - -

|----------------------------------------------------------------|
|----------------------------------------------------------------|
|----------------------------------------------------------------|
|----------------------------------------------------------------|
|-0-----0---1-0--0-3-4-3-0-2-3-2--0-----0---1-0--0-4-5-4-0-3-4-3-|
|-0-0-0-0-0-1-0--0-3-4-3-0-2-3-2--0-0-0-0-0-1-0--0-4-5-4-0-3-4-3-|
PM - - - - - - - - - - - - - - - - - - - - - -

Fill - Guitar 1
|----------|
|----------|
|-3-3--5-5-|
|-3-3--5-5-|
|-1-1--3-3-|
|----------|

Fill - Guitar 2
|------------12-----|
|--------11------11-|
|-9--10-------------|
|-------------------|
|-------------------|
|-------------------|

Last note - Let ring
|-----|
|-----|
|-----|
|--8--|
|--8--|
|--8--|

Log In to leave a comment

After registration we will return you to the same place
Comments
face-with-monocle
If you wait a bit, some comments may appear here...

Shhh...