Loading...
Killswitch Engage logo

When Darkness Falls Killswitch Engage

  • 0
  • Share
  • Transposing
    0
  • Font Size
-------------------------------------------------------------------------------
When Darkness Falls - Killswitch Engage
-------------------------------------------------------------------------------
Tabbed by: IbanezFreak555
Email: [email protected]

Tuning: C,G,C,F,A, D

Intro/Verse
|-------------------------------------------------------|
|-------------------------------------------------------|
|-------------------------------------------------------|
|---------------------------------------------8888-7777-|
|-4---3---5-4---4---3---5-4---4---3---5-4---4-7777-6666-|
|-4-0-3-0-5-4-0-4-0-3-0-5-4-0-4-0-3-0-5-4-0-4-----------|
PM . . . . . . . . .

|----------------------------------------------------------|
|----------------------------------------------------------|
|----------------------------------------------------------|
|----------------------------------------------------------|
|-4---3---5-4---4---3---5-4---4---3---5-4---4--0-0-4-3--|
|-4-0-3-0-5-4-0-4-0-3-0-5-4-0-4-0-3-0-5-4-0-4--0-0-4-3-----|
PM . . . . . . . . . . . . .

|---------------------------------------------------------|
|---------------------------------------------------------|
|---------------------------------------------------------|
|---------------------------------------------------------|
|-12--4---3---5-4---4---4---3---5-4---4---4-5-4-3-0--|
|-12--4-0-3-0-5-4-0-4---4-0-3-0-5-4-0-4---4-5-4-3-0-----|
PM . . . . . . . . . . .

|---------------------------------------------------------------|
|---------------------------------------------------------------|
|---------------------------------------------------------------|
|---------------------------------------------------------------|
|-4---3---5-4---4---------4---3---5-4---4---------4-5-4-3-0-----|
|-4-0-3-0-5-4-0-4-0-0-0-0-4-0-3-0-5-4-0-4-0-0-0-0-4-5-4-3-0--|
PM . . . . . . . . . . . . . . . . . . .

Pre-Chorus
|----------------------------------------------------------------------|
|----------------------------------------------------------------------|
|-6/7-7-7--6/7-7-7--6/7-7-7--6/7-7-7--75-5-5--75-5-5--6/7-7-7--5-5-|
|----------------------------------------------------------------------|
|-4/5-5-5--4/5-5-5--4/5-5-5--4/5-5-5--53-3-3--53-3-3--4/5-5-5--3-3-|
|----------------------------------------------------------------------|

|----------------------------------------------------|
|----------------------------------------------------|
|-12/14-14-14--12/14-14-14--14/17-17-17--14/17-17-17-|
|----------------------------------------------------|
|-10/12-12-12--10/12-12-12--12/15-15-15--12/15-15-15-|
|----------------------------------------------------|

|----------------------------------------------------|
|----------------------------------------------------|
|-1412-12-12--1412-12-12--127-7-7--7-7-7-7-7-7-|
|----------------------------------------------------|
|-1210-10-10--1210-10-10--105-5-5--5-5-5-5-5-5-|
|----------------------------------------------------|

Chorus
Guitar 1
|-------------------------------------------------------|
|-------------------------------------------------------|
|-3--3--3--5-----------5--3--3--3--5--------------------|
|-3--3--3--5--0--0--0--5--3--3--3--5--0--0--------------|
|-1--1--1--3--0--0--0--3--1--1--1--3--0--0--0-3-3-0-5-3-|
|-------------0--0--0-----------------0--0--0-3-3-0-5-3-|
PM . . . . . .

Guitar 2
|------------12------------------11-----|
|--------11------11----------10------10-|
|-9--10---------------9--10-------------|
|---------------------------------------|
|---------------------------------------|
|---------------------------------------|

Fill
|---------------------------------|
|---------------------------------|
|---------------------------------|
|---------------------------------|
|-4---3---5-4---4---4-5-4-3-0--|
|-4-0-3-0-5-4-0-4---4-5-4-3-0-----|
PM . . . . . . . .

Breakdown
Guitar 1
|--------------------------------|
|--------------------------------|
|--------------------------------|
|--------------------------------|
|-0-0-0-0-0-1-0--0-3-4-3-0-2-3-2-|
|-0-0-0-0-0-1-0--0-3-4-3-0-2-3-2-|
PM. . . . . . . . . . . . . . .

Guitar 2
|------------------|
|------------------|
|------------------|
|------------------|
|------------------|
|-/////X-----------|

Both
|------------------------------------------------------------|
|------------------------------------------------6~--xxx--6~-|
|------------------------------------------------5~--xxx--5~-|
|------------------------------------------------------------|
|-0-----0---1-0--0-3-4-3-0-2-3-2--0-----0---1-0--------------|
|-0-0-0-0-0-1-0--0-3-4-3-0-2-3-2--0-0-0-0-0-1-0--------------|
PM . . . . . . . . . . . . . .

|----------------------------------------------------------------|
|----------------------------------------------------------------|
|----------------------------------------------------------------|
|----------------------------------------------------------------|
|-0-----0---1-0--0-3-4-3-0-2-3-2--0-----0---1-0--0-4-5-4-0-3-4-3-|
|-0-0-0-0-0-1-0--0-3-4-3-0-2-3-2--0-0-0-0-0-1-0--0-4-5-4-0-3-4-3-|
PM . . . . . . . . . . . . . . . . . . . . . .

Fill
Guitar 1
|----------|
|----------|
|-3-3--5-5-|
|-3-3--5-5-|
|-1-1--3-3-|
|----------|

Guitar 2
|------------12-----|
|--------11------11-|
|-9--10-------------|
|-------------------|
|-------------------|
|-------------------|

End
|-----|
|-----|
|-----|
|--8--|
|--8--|
|--8--|

| / slide up
| slide down
| h hammer-on
| p pull-off
| ~ vibrato
| harmonic
| x Mute note
===============================================================================

Log In to leave a comment

After registration we will return you to the same place
Comments
face-with-monocle
If you wait a bit, some comments may appear here...

Shhh...