Х.З. (Х.. Забей) logo

Джейсон Форрис Х.З. (Х.. Забей)

  • 0
  • Share
  • Font Size
Х.З. (Х.. Забей) – Джейсон Форрис
Fill 1

E----------------------------------------------------
B----------------------------------------------------
G-----5----------------------------------------------
D-7-7-5----------------------------------------------
A-7-7-3----------------------------------------------
E-5-5------------------------------------------------

Fill 2

E----------------------------------------------------
B----------------------------------------------------
G-----5-5-5-5-5-5-5-5-5-5-5-5-5----------------------
D-7-7-5-5-5-5-5-5-5-5-5-5-5-5-5----------------------
A-7-7-3-3-3-3-3-3-3-3-3-3-3-3-3----------------------
E-5-5------------------------------------------------

Fill 1
Мне приснился Джейсон Форрис.
Крейзи дэт в хоккейной маске.
Я ебал такие сны.
Я не люблю такие таски.
Fill 2
Топором мне угрожая.
Он за мной всю ночь гонялся.
Хорошо, что я проснулся.
А не то бы обосрался.
(не большой проигрышь)

E---------
B---------
G---------
D-5-5-5---
A-5-5-5---
E-3-3-3---

Джейсон Форрис.(4 раза)
E-12--10-8------------------------------------
B----------10---------------------------------

Solo

E------10-------11-------10---------------------
B-13-10----13-10----13-10----13-10--------------
G----------------------------------9------------
D-----------------------------------------------
A-----------------------------------------------
E-----------------------------------------------

Log In to leave a comment

After registration we will return you to the same place
Comments
face-with-monocle
If you wait a bit, some comments may appear here...

Shhh...