Keith Urban logo

Desiree Keith Urban

  • 0
  • Share
  • Transposing
    0
  • Font Size
Keith Urban – Desiree
Intro:
G Cadd9
E|------------------------------------------|------------3----------------------|
B|---------3---------1--0-------------------|--1--------------------------------|
G|-------0--0-------------2--0---------0----|----0----------------0--0h2p0------|
D|-----0------0-------------------0h2----2--|---------------0h2--------------0--|
A|------------------------------------------|-----------------------------------|
E|--3---------------------------------------|-----------------------------------|

G Cadd9
E|-------------------------------------|--3--------------------------3----------|
B|--------3------1--0------------------|----1--------------------------1---1----|
G|------0---0----------2--4---------0--|------0-----------0--------------0------|
D|----0-------0-------------------2----|------------0h2------2------------------|
A|------------------------------3------|----------------------------------------|
E|--3----------------------------------|----------------------------------------|

Verse:
G Cadd9
E|--------------------------------------|------------3--------------------3--------|
B|--------3--------------------3--------|--------------1---1--------1-------1---1--|
G|------0---0----0-------0-------0---0--|---------0------0------------0-------0----|
D|----0-------0--------0---0-------0----|------2----------------0h2----------------|
A|--------------------------------------|--3---------------------------------------|
E|--3----------------3------------------|------------------------------------------|

At the end of the second part of the
First verse there is a small variation
E|------------------------0------------------|
B|----------------------------3---1----------|
G|---------0---------------------------0-----|
D|------2----2----2-----------------------2--|
A|---3----------3----------------------------|
E|-------------------------------------------|

Just before you enter the chorus D is fingerplucked just as Dsus
Is fingerplucked in the chorus below and then strummed 4 times
As a lead in.

Chorus:
E Cadd9 Dsus D x 7
E|--0-0-------------3-------------------------0---------------2--|
B|--0-0----------------1----1--------------3-----3------------3--|
G|--0-0--------0----------0------------2----------------------2--|
D|--2-2-----2-----------------------0-------------------------0--|
A|--2-2--3-------------------------------------------------------|
E|--0-0----------------------------------------------------------|

G A/C G Cadd9 G
E|---------------------------0-----------------------------------3------------------------|
B|---------3---------------1---1---1---------3-------------1--------1---1-----------3-----|
G|-------0--0-----------0--------0---------0---0--------------0-------0-----------0---0---|
D|-----0------0------2-------------------0-------0------2----------------------0--------0-|
A|-----------------0-------------------2--------------3-----------------------------------|
E|---3-----------------------------------------------------------------------3------------|

Cadd9 Dsus D x 4
E|--------------3------------------0-------------2--|
B|-------1--------1---1---------2----2-----------3--|
G|---------0--------0---------3--------3---------2--|
D|----2---------------------0--------------------0--|
A|--3-----------------------------------------------|
E|--------------------------------------------------|

Listen to the song closely and youll see where each chord fits in

Now at the end of each chorus there is a small fill.
It is simply a Cadd9 with a small sliding riff in it so here it is
E|----------3--------------------------------------3----------0--|
B|------------1---1----------1--------3--------------1--------3--|
G|------0-------0---------0--------0----------0--------0------0--|
D|----2----------------2------2/4--------4/2------------------2--|
A|--3----------------3----------------------------------------3--|
E|---------------------------------------------------------------|

At the end of the song where they keep repeating the lines
"I wont be around for you goodbye" and "You love his money
More than me" It simply follows the first half of the verse Riff
G and Cadd9 until the song ends on G

Log In to leave a comment

After registration we will return you to the same place
Comments
face-with-monocle
If you wait a bit, some comments may appear here...

Shhh...