Keith Urban logo

Days Go By Keith Urban

  • 0
  • Share
  • Transposing
    0
  • Font Size
Keith Urban – Days Go By

KEITH URBAN-DAYS GO BY

Tabbed by:Mat waters
Email:[email protected]
Tuning:EADGBE

INTRO-

E|-------------------------------------|
B|--------------------3-----3----------|
G|-7/9-9-11-9-7-4-2-4---2-4---2-2/-9---|
D|-------------------------------------|X2
A|-------------------------------------|
E|-------------------------------------|

VERSE-1
D Em7 D/F# Em7
I'm changing lanes and talkin' on the phone, Drivin' way too fast ______
D Em7 D/F#
And the interstate's jammed with gunners like me, Afraid of coming in last
Em D/F# G
_____But somewhere in the race we run, We're coming undone

CHORUS-
D Em7 D/F#
And days Go by, I can feel Em flying, Like a hand out the window in the wind
G D Em7 D/F#
The cars Go by, Yeah it's all we've been given, So you better start livin' right now
D Em7 D/F# G
Cause days Go by ___________________

VERSE 2-

D Em7 D/F# Em7
___Out on the roof just the other night, I watched the world flash by ______
D Em7 D/F#
Headlights, taillights running through a river, Of neon signs
Em D/F# G
______But somewhere in the rush I felt, We're losing ourselves

CHORUS-
D Em7 D/F# G
And days Go by, I can feel Em flying, Like a hand out the window in the wind
D Em7 D/F#
The cars Go by, Yeah it's all we've been given, So you better start livin' right now
D Em7 D/F# G D Em7 D/F# G
Cause days Go by ___________________Yeah the days Go by ___________________

BRIDGE-

A G
____We think about tomorrow then it slips away, oh yes it does
A Em7 D/F# G
____We talk about forever but we've only ___got ____today

CHORUS-
D Em7 D/F# G
And days Go by, I can feel Em flying, Like a hand out the window in the wind
G D Em7 D/F#
The cars Go by, Yeah it's all we've been given, So you better start livin' you better
Livin'
G Stop
You better start livin' right now _________

CHORUS-
D Em7 D/F# G
And days Go by, I can feel Em flying, Like a hand out the window in the wind
D Em7 D/F# G
The cars Go by, Yeah it's all we've been given, So you better start livin' right now
D Em7 D/F# G D Em7 D/F# G
Cause days Go by ___________________Yeah as days Go by ___________________
D G D/F# G
Oh ____so take me by the hand ______yours and mine, _______Take them by the hand oh
Nice
D G D/F# G D G
So take me by the hand ______don�t let them all fly by, ____come on come on
____come
D G D G D G D
On yeah ____woooo ________don�t you know that days Go b----y

SOLO-(NOT MY WORK)
E-----------------------------------------------------------|
B--------7----------------------------7---------------------|
G---7h9-9-7h9p7------7~---7~-----7h9-9-7h9h7-------7~---7~--|
D--------------9---/9---/9------------------9----/9---/9----|
A-----------------------------------------------------------|
E-----------------------------------------------------------|

E--------------/5-5/7-7/10-12--|
B--------7---------------------|
G---7h9-9-9-7------------------|
D------------9-----------------|
A------------------------------|
E------------------------------|

E---12p10--12p10-12p10--12p10--12p10-12p10--12p10--12br~-|
B-10-----10-----------10-----10-----------10-------------|
G--------------------------------------------------------|
D--------------------------------------------------------|
A--------------------------------------------------------|
E--------------------------------------------------------|

THATS IT..........

Log In to leave a comment

After registration we will return you to the same place
Comments
face-with-monocle
If you wait a bit, some comments may appear here...

Shhh...