Loading...
Judas Priest logo

Breaking The Law Judas Priest

  • 0
  • Share
  • Transposing
    0
  • Font Size
Intro:
E-------------------------------------------
B-------------------------------------------
G------------------------------------------- x2
D-------------------------------------------
A-0-2-3---0-2-3--0-2-3-------0-------0--3-2-
E-----------------------1--3----1--3--------

E---------------------------------------------------
B-2-----------------------------------------------2-
G-2------------------------------5----------------2- x2
D-2------------------------------5-------5--------2-
A-0------------------------------3-------5--------0-
E----------------------------------------3----------
There I was completely wasted, out of work and down
Inside it’s so frustrating as I drift from town to town

E-------------------------------------
B-------------------------------------
G-10----------------------------10----
D-10----------------------------10-10-
A-8-----------------------------8--10-
E----------------------------------8--
I feel as though nobody cares, if I live or die

E-------------------------------
B---------------------------2---
G-10------------------------2---
D-10------------------------2---
A-8-------------------------0---
E-------------------------------
So I might as well begin to put some action in my life

PM........................... PM........................
E--------------------------------------------------------------------
B--------------------------------10----------------------------10-10-
G--------------------------------9-----------------------------9--9-- x2
D--------------------------------------------------------------------
A-0-0-0-0-0-0-0-0-0-0-0-0-0-0-0-----0-0-0-0-0-0-0-0-0-0-0-0-0-0------
E--------------------------------------------------------------------
Breakin the law breakin the law, Breakin the law Breakin the law

E-------------------------------------------------
B-2---------------------------------------------2-
G-2-------------------------------5-------------2-
D-2-------------------------------5------5------2-
A-0-------------------------------3------5------0- x2
E----------------------------------------3--------
So much for the golden future, I can’t even start
I’ve had every promise broken, and there’s anger in my heart!

E------------------------------------
B------------------------------------
G-10---------------------------10----
D-10---------------------------10-10-
A-8----------------------------8--10-
E---------------------------------8--
You don’t know what it’s like, you don’t have a clue

E--------------------------------
B------------------------------2-
G-10---------------------------2-
D-10---------------------------2-
A-8----------------------------0-
E--------------------------------
If you did you’d find yourself doin thsame things too!

PM........................... PM........................
E--------------------------------------------------------------------
B--------------------------------10----------------------------10-10-
G--------------------------------9-----------------------------9--9-- x2
D--------------------------------------------------------------------
A-0-0-0-0-0-0-0-0-0-0-0-0-0-0-0-----0-0-0-0-0-0-0-0-0-0-0-0-0-0------
E--------------------------------------------------------------------
Breakin the law breakin the law, Breakin the law Breakin the law!!

E-----------------------
B-----------------------
G-5-----------------3-3- x3
D-5-----------------3-3-
A-3-----------------1-1-
E-----------------------

E---------------------
B---------------------
G-7---10--5--7--10-12- x2
D-7---10--5--7--10-12-
A-5---8---3--5--8--10-
E---------------------

E-------------------------------------------
B-------------------------------------------
G------------------------------------------- x4
D-------------------------------------------
A-0-2-3---0-2-3--0-2-3-------0-------0--3-2-
E-----------------------1--3----1--3--------

Log In to leave a comment

After registration we will return you to the same place
Comments
face-with-monocle
If you wait a bit, some comments may appear here...

Shhh...