Loading...
John Lennon logo

Cold Turkey John Lennon

  • 0
  • Share
  • Transposing
    0
  • Font Size
John Lennon - Cold Turkey
Words/Music by John Lennon
Tabbed by Dionysus
Any comments, corrections, abuse
[email protected]
_______________________________________
I'm 100% certain on the intro, verse and
The solo however the chorus and after
Chorus bit i'm only about 50% sure on
... Sorry, :oP

I went looking for this tab and i couldn't
Find it anywhere so i figured i'd better
Do it myself.

Standard Tuning:

Intro:
E|-------5-----------------------------------------------|
B|--7b8--5--7p5-7b8-5-----5----7---5---7-----------|
G|--7b8-----7p5-7b8-5--7--5----7---5---7---7-----|
D|---------------------7-------------------------7-----|
A|-------------------------------------------------------|
E|-------------------------------------------------------|

Verse:
E|-----------------------------------|
B|---7b8-7b8-7b8-7b8--5-----5--------|
G|---7b8-7b8-7b8-7b8--5--7--5--------|
D|-----------------------7-----------|
A|-----------------------------------|
E|-----------------------------------|

Chorus:
P.M.................................
E|------------------------------------|
B|------------------------------------|
G|--7-7-7-7-7-7-7-7-7-7-7-7-7-7-7-7---|
D|--7-7-7-7-7-7-7-7-7-7-7-7-7-7-7-7---|
A|--7-7-7-7-7-7-7-7-5-5-5-5-5-5-5-5---|
E|--0-0-0-0-0-0-0-0-0-0-0-0-0-0-0-0---|

After Chorus:
E|-------------------------|
B|---7---5-------------|
G|---7---5--7---5--|
D|--------------7---5--|
A|-------------------------|
E|-------------------------|

Solo
E|------------------------------------------|
B|------------------------------------------|
G|------------------------------------------|
D|--5b7-5b7---5b7-5b7---7b9-7b9---5b7-5b7---|
A|------------------------------------------|
E|------------------------------------------|

Outro:
Just do a few bends around the 5th & 7th Fret
Areas on G & B Strings and so on and so forth
(At the very very end there it almost sounds
Like a violin bow scraped across the strings)

Log In to leave a comment

After registration we will return you to the same place
Comments
face-with-monocle
If you wait a bit, some comments may appear here...

Shhh...

Most Popular
You Might Like