Jodio Loco Sucio logo

Privilegio Es Vivir En Una Democracia Jodio Loco Sucio

  • 0
  • Share
  • Transposing
    0
  • Font Size
    15
Jodio Loco Sucio – Privilegio Es Vivir En Una Democracia
PRIVILEGIO ES VIVIR EN UNA DEMOCRAC.I.A.
As recorded by JLS
(From the 2000 Album SERPIENTE EN EL HUERTO)

Transcribed by el Feo

 Words and Music by Leo Susana
Arranged by JLS

C#(type 2)
X x x 6 6 x Dm
X x x 7 6 x C#
X x x 6 6 9

 4/4
  Gtr I
  E. S s s Q  E S E.   E. S e  Q  E   E.
|--------------------|-------------------|
|--------------------|-------------------|
|----------4--2-4-5--|---------4--2--/5--|
|-3--3-3-3-4--2-4-5--|-3--3-3--4--2--/5--|
|-3--3-3-3-2--0-2-3--|-3--3-3--2--0--/3--|
|-1--1-1-1-2--0-2-3--|-1--1-1--2--0--/3--|

  Q=110
  C# C#
 4/4
  Gtr I
  E E E  E  +B    E E E E +B    E E E E +B
|---------------|-------------|-------------|
|---6----6--(6)-|---6---6-(6)-|---6---6-(6)-|
|-6---6-(6)-----|-7---7-------|-6---6-------|
|---------------|-------------|-------------|
|---------------|-------------|-------------|
|---------------|-------------|-------------|

  Dm
  E E E E +E  E S S E   E E E E +E  E
|---------------------|-------9-(9)---|
|---6---6-(6)---6h8p6-|---6---------6-|
|-7---7-------7-------|-6---6---------|
|---------------------|---------------|
|---------------------|---------------|
|---------------------|---------------|

  E E   E E E E E  E E E   E E E E +E  E E E   E E E E E  E E E
|-----|-------9---10-----|-------9-(9)-------|-------9---10-----|----|
|---6-|---6----------6---|---6---------6---6-|---6----------6---|----|
|-6---|-7---7---7------7-|-6---6---------6---|-7---7---7------7-|----|
|-----|------------------|-------------------|------------------|----|
|-----|------------------|-------------------|------------------|----|
|-----|------------------|-------------------|------------------|----|

** Generated using Power Tab Editor by Brad Larsen: The Official Power Tab Web Site

Log In to leave a comment

After registration we will return you to the same place
Comments
face-with-monocle
If you wait a bit, some comments may appear here...

Shhh...