Jodio Loco Sucio logo

Dame Tu Sexo Jodio Loco Sucio

  • 0
  • Share
  • Transposing
    0
  • Font Size
Jodio Loco Sucio – Dame Tu Sexo
DAME TU SEXO
As recorded by J.L.S.
(From the 1997 Album TESTIGOS DE LA HISTORIA)

Words and Music by Leo Susana
Arranged by J.L.S.

Cadd9
X 3 2 0 3 3

Q=170
G5
4/4
Gtr I
PM------|
E E E E E E E E E E E E E E E E E E E E E E E E E E E E E Q.
||------8-------6---|-----8-------6---|-----8-------6---|--------------||
||o---8---8---6---6-|---8---8---6---6-|---8---8---6---6-|-------------o||
||--7-------5-------|-7-------5-------|-7-------5-------|--------------||
||------------------|-----------------|-----------------|--------------||
||o-----------------|-----------------|-----------------|-5-5-5-5-5---o||
||------------------|-----------------|-----------------|-3-3-3-3-3----||

G5 C5 F A#
E E E E E E E E E E E E E E E E E E E E E E E E E E E E E E
||------------------|-----------------|-----------------|------------------||
||o-----------------|-----------------|-----------------|-----------------o||
||------------------|-----------------|-----------------|------------------||
||------5-------3---|-----5-------3---|-----5-------3---|-----5-------3----||
||o-5-5-3-5-3-3-1-3-|-5-5-3-5-3-3-1-3-|-5-5-3-5-3-3-1-3-|-5-5-3-5-3-3-1-3-o||
||--3-3-3-3-1-1-1-1-|-3-3-3-3-1-1-1-1-|-3-3-3-3-1-1-1-1-|-3-3-3-3-1-1-1-1--||

Cadd9
PM----------| PM------------|
E E E E E E E E E E E E E E E E 4x Wx8 B B
||------------------|------------------||------------||--3----3----|
||o-----------------|-----------------o||------------||o-3----3----|
||------------------|------------------||------------||--0----0----|
||----------5-5-5-5-|---------3-3------||------------||--0----2----|
||o-5-5-5-5-3-3-3-3-|-3-3-3-3-1-1-3-3-o||------------||o-2----3----|
||--3-3-3-3---------|-1-1-1-1-----1-1--||------------||--3---------|

B Q Q
|-1-------||----|
|-1-3-1--o||----|
|-2-3-2---||----|
|-3-3-3---||----|
|-3-1-3--o||----|
|-1---1---||----|

** Generated using Power Tab Editor by Brad Larsen: The Official Power Tab Web Site

Log In to leave a comment

After registration we will return you to the same place
Comments
face-with-monocle
If you wait a bit, some comments may appear here...

Shhh...

Versions

Most Popular