• 0
  • Share
  • Transposing
    0
  • Font Size
    15
Jimmy Eat World – Sex You
Brand new song, it's awesome.

B = bend

INTRO

E|---------------------------------------------------------------
B|---------------------------------------------------------------
G|---------------------------------------------------------------
D|3-3-3-3-3-3-3-3-0-0-0-0-0-0-0-0-7-7-7-7-7-7-7-7-3-3-3-3-3-3-3-3
A|3-3-3-3-3-3-3-3-0-0-0-0-0-0-0-0-7-7-7-7-7-7-7-7-3-3-3-3-3-3-3-3
D|3-3-3-3-3-3-3-3-0-0-0-0-0-0-0-0-7-7-7-7-7-7-7-7-3-3-3-3-3-3-3-3

E|---------------------------------------------------------------
B|---------------------------------------------------------------
G|---------------------------------------------------------------
D|3-3-3-3-3-3-3-3-0-0-0-0-5-5-5-5-7-7-7-7-7-7-7-7-7-7-7-7-7-7-7-7
A|3-3-3-3-3-3-3-3-0-0-0-0-5-5-5-5-7-7-7-7-7-7-7-7-7-7-7-7-7-7-7-7
D|3-3-3-3-3-3-3-3-0-0-0-0-5-5-5-5-7-7-7-7-7-7-7-7-7-7-7-7-7-7-7-7

VERSE 1

E|---------------------------------------------------------
B|---------------------------------------------------------
G|---------------------------------------------------------
D|3-3-3-3--3-3-3--3-3-3--3-3-3-0-0-0-0--0-0-0--0-0-0--0-0-0
A|3-3-3-3--3-3-3--3-3-3--3-3-3-0-0-0-0--0-0-0--0-0-0--0-0-0
D|3-3-3-3--3-3-3--3-3-3--3-3-3-0-0-0-0--0-0-0--0-0-0--0-0-0
__________________________p.m._____________________________

E|---------------------------------------------------------
B|---------------------------------------------------------
G|---------------------------------------------------------
D|3-3-3-3--3-3-3--3-3-3--3-3-3-0-0-0-0--0-0-0--0-0-0--0-0-0
A|3-3-3-3--3-3-3--3-3-3--3-3-3-0-0-0-0--0-0-0--0-0-0--0-0-0
D|3-3-3-3--3-3-3--3-3-3--3-3-3-0-0-0-0--0-0-0--0-0-0--0-0-0
__________________________p.m._____________________________

E|---------------------------------------------------------
B|---------------------------------------------------------
G|---------------------------------------------------------
D|3-3-3-3--3-3-3--3-3-3--3-3-3-0-0-0-0--0-0-0--0-0-0--0-0-0
A|3-3-3-3--3-3-3--3-3-3--3-3-3-0-0-0-0--0-0-0--0-0-0--0-0-0
D|3-3-3-3--3-3-3--3-3-3--3-3-3-0-0-0-0--0-0-0--0-0-0--0-0-0
__________________________p.m._____________________________

E|---------------------------------------------------
B|---------------------------------------------------
G|---------------------------------------------------
D|3-3-3-3--3-3-3--3-3-3--3-3-3-2--2--2--2--2--2--2--2
A|3-3-3-3--3-3-3--3-3-3--3-3-3-2--2--2--2--2--2--2--2
D|3-3-3-3--3-3-3--3-3-3--3-3-3-2--2--2--2--2--2--2--2
 ____________p.m._____________

CHORUS

E|---------------------------------------------------------------
B|---------------------------------------------------------------
G|---------------------------------------------------------------
D|3-3-3-3-3-3-3-3-0-0-0-0-0-0-0-0-7-7-7-7-7-7-7-7-3-3-3-3-3-3-3-3
A|3-3-3-3-3-3-3-3-0-0-0-0-0-0-0-0-7-7-7-7-7-7-7-7-3-3-3-3-3-3-3-3
D|3-3-3-3-3-3-3-3-0-0-0-0-0-0-0-0-7-7-7-7-7-7-7-7-3-3-3-3-3-3-3-3

E|---------------------------------------------------------------
B|---------------------------------------------------------------
G|---------------------------------------------------------------
D|3-3-3-3-3-3-3-3-0-0-0-0-5-5-5-5-7-7-7-7-7-7-7-7-7-7-7-7-7-7-7-7
A|3-3-3-3-3-3-3-3-0-0-0-0-5-5-5-5-7-7-7-7-7-7-7-7-7-7-7-7-7-7-7-7
D|3-3-3-3-3-3-3-3-0-0-0-0-5-5-5-5-7-7-7-7-7-7-7-7-7-7-7-7-7-7-7-7

E|---------------------------------------------------------------
B|---------------------------------------------------------------
G|---------------------------------------------------------------
D|3-3-3-3-3-3-3-3-0-0-0-0-0-0-0-0-7-7-7-7-7-7-7-7-3-3-3-3-3-3-3-3
A|3-3-3-3-3-3-3-3-0-0-0-0-0-0-0-0-7-7-7-7-7-7-7-7-3-3-3-3-3-3-3-3
D|3-3-3-3-3-3-3-3-0-0-0-0-0-0-0-0-7-7-7-7-7-7-7-7-3-3-3-3-3-3-3-3

E|---------------------------------------------------------------
B|---------------------------------------------------------------
G|---------------------------------------------------------------
D|3-3-3-3-3-3-3-3-0-0-0-0-5-5-5-5-7-7-7-7-7-7-7-7-7-7-7-7-7-7-7-7
A|3-3-3-3-3-3-3-3-0-0-0-0-5-5-5-5-7-7-7-7-7-7-7-7-7-7-7-7-7-7-7-7
D|3-3-3-3-3-3-3-3-0-0-0-0-5-5-5-5-7-7-7-7-7-7-7-7-7-7-7-7-7-7-7-7

VERSE 2

E|---------------------------------------------------------
B|---------------------------------------------------------
G|---------------------------------------------------------
D|3-3-3-3--3-3-3--3-3-3--3-3-3-0-0-0-0--0-0-0--0-0-0--0-0-0
A|3-3-3-3--3-3-3--3-3-3--3-3-3-0-0-0-0--0-0-0--0-0-0--0-0-0
D|3-3-3-3--3-3-3--3-3-3--3-3-3-0-0-0-0--0-0-0--0-0-0--0-0-0

E|---------------------------------------------------------
B|---------------------------------------------------------
G|---------------------------------------------------------
D|3-3-3-3--3-3-3--3-3-3--3-3-3-0-0-0-0--0-0-0--0-0-0--0-0-0
A|3-3-3-3--3-3-3--3-3-3--3-3-3-0-0-0-0--0-0-0--0-0-0--0-0-0
D|3-3-3-3--3-3-3--3-3-3--3-3-3-0-0-0-0--0-0-0--0-0-0--0-0-0

E|---------------------------------------------------------
B|---------------------------------------------------------
G|---------------------------------------------------------
D|3-3-3-3--3-3-3--3-3-3--3-3-3-0-0-0-0--0-0-0--0-0-0--0-0-0
A|3-3-3-3--3-3-3--3-3-3--3-3-3-0-0-0-0--0-0-0--0-0-0--0-0-0
D|3-3-3-3--3-3-3--3-3-3--3-3-3-0-0-0-0--0-0-0--0-0-0--0-0-0

E|---------------------------------------------------
B|---------------------------------------------------
G|---------------------------------------------------
D|3-3-3-3--3-3-3--3-3-3--3-3-3-2--2--2--2--2--2--2--2
A|3-3-3-3--3-3-3--3-3-3--3-3-3-2--2--2--2--2--2--2--2
D|3-3-3-3--3-3-3--3-3-3--3-3-3-2--2--2--2--2--2--2--2

CHORUS

BRIDGE

Bass plays for a while...

Then play the same riff from chorus

SOLO

E|----------------------------------------------
B|10---------10---------------------------------
G|---9-7-9------9-7-9b-------------------7-7----
D|---------7-----------10-9-10-9-10-9-10-----7-7
A|----------------------------------------------
D|----------------------------------------------

E|----------------------------------------------
B|10---------10---------------------------------
G|---9-7-9------9-7-9b-------------------7-7-6-6
D|---------7-----------10-9-10-9-10-9-10--------
A|----------------------------------------------
D|----------------------------------------------

CHORUS

After 2x play:

E|---------------------------------------------------------------
B|---------------------------------------------------------------
G|---------------------------------------------------------------
D|3-3-3-3-3-3-3-3-0-0-0-0-0-0-0-0-5-5-5-5-7-7-7-7-3-3-3-3-3-3-3-3
A|3-3-3-3-3-3-3-3-0-0-0-0-0-0-0-0-5-5-5-5-7-7-7-7-3-3-3-3-3-3-3-3
D|3-3-3-3-3-3-3-3-0-0-0-0-0-0-0-0-5-5-5-5-7-7-7-7-3-3-3-3-3-3-3-3

E|---------------------------------------------------------------
B|---------------------------------------------------------------
G|---------------------------------------------------------------
D|3-3-3-3-3-3-3-3-0-0-0-0-5-5-5-5-7-7-7-7-7-7-7-7-7-7-7-7-7-7-7-7
A|3-3-3-3-3-3-3-3-0-0-0-0-5-5-5-5-7-7-7-7-7-7-7-7-7-7-7-7-7-7-7-7
D|3-3-3-3-3-3-3-3-0-0-0-0-5-5-5-5-7-7-7-7-7-7-7-7-7-7-7-7-7-7-7-7

E|---------------------------------------------------------------
B|---------------------------------------------------------------
G|---------------------------------------------------------------
D|3-3-3-3-3-3-3-3-0-0-0-0-0-0-0-0-5-5-5-5-7-7-7-7-3-3-3-3-3-3-3-3
A|3-3-3-3-3-3-3-3-0-0-0-0-0-0-0-0-5-5-5-5-7-7-7-7-3-3-3-3-3-3-3-3
D|3-3-3-3-3-3-3-3-0-0-0-0-0-0-0-0-5-5-5-5-7-7-7-7-3-3-3-3-3-3-3-3

E|---------------------------------------------------------------
B|---------------------------------------------------------------
G|---------------------------------------------------------------
D|3-3-3-3-3-3-3-3-0-0-0-0-5-5-5-5-7-7-7-7-7-7-7-7-7-7-7-7-7-7-7-7
A|3-3-3-3-3-3-3-3-0-0-0-0-5-5-5-5-7-7-7-7-7-7-7-7-7-7-7-7-7-7-7-7
D|3-3-3-3-3-3-3-3-0-0-0-0-5-5-5-5-7-7-7-7-7-7-7-7-7-7-7-7-7-7-7-7

Log In to leave a comment

After registration we will return you to the same place
Comments
face-with-monocle
If you wait a bit, some comments may appear here...

Shhh...