Loading...
  • 0
  • Share
  • Transposing
    0
  • Font Size
Pre-verse
+--------------+
|-6-5--35----*|
|---------55--*|
+--------------+

Verse riff
+----------+
|*--------*|
|*--355---*|
+--5-------+

Chorus riff
+------------------+
|*----------------*|
|*5-5-------223344*|
+-----2345-5-------+

Bridge into solo "I`d move over rover and let Jimi take over"
+-----------+-----------+---------------+---------+-----------------+
|*---------*|*---------*|*-------------*|---------|-----------------|
|*-5-5-5-5-*|*-3-3-3-3-*|*-12-12-12-12-*|-3-3-3-3-|-3-3-3-3-3-3-3-3-|
+-----------+-----------+---------------+---------+-----------------+

Solo riff
+------------------+
|*----------------*|
|*7-7-------445566*|
+-----4567-7-------+

PERFORMANCE NOTES: (Sequence of patterns)

Pattern Repeats
------- -------
Pre-verse Two
Verse Six
Chorus Four

Verse Six
Chorus Four

Bridge into Solo One
Solo Four

Pre-verse Two
Verse Six
Chorus Four

Solo Two
Chorus Two
Solo Two
Pre-Verse One
Chorus One
Solo One [Fade out...]

Log In to leave a comment

After registration we will return you to the same place
Comments
face-with-monocle
If you wait a bit, some comments may appear here...

Shhh...