Loading...
Jimi Hendrix logo

Ezy Rider Jimi Hendrix

  • 0
  • Share
  • Transposing
    0
  • Font Size
Intro:
4X
-------------------------
-------------------------
-4--6--7--9--------------
--------------9--7--5--2-
-2--4--5--7--------------
--------------7--5--3--0-

-----------------------------------------------
-----------------------------------------------
-4--6--7--4--6--7--4--6--7--12--12--12--12--12-
-----------------------------------------------
-2--4--5--2--4--5--2--4--5--10--10--10--10--10-
-----------------------------------------------

Verse: 4X
--------------------------------------------------------
--------------------------------------------------------
--------------------------------------------------------
---------------------7--5-------------------------------
----------2-4-5--5/7----------------2-4-5-4-5-4-5-4-5-4-
-0-1-2-3-------------5--3--0-1-2-3----------------------

--------------------------------------------------------
--------------------------------------------------------
-76-76-76-76-76-76-76-7--98-98-98-98-98-98-
--------------------------------------------------------
-54-54-54-54-54-54-54-5--76-76-76-76-76-76-
--------------------------------------------------------
Third time go to outro

4X
-----------------------------
-------------------------8-8-
-------------------------7-7-
--7(9)7--5h7-----7(9)7---6-6-
-------7----5h7-------7--7-7-
-----------------------------
4X
---------------------
---------------------
---------------------
-----------------5---
---5-6-7~---5-6-7-7~-
-0--------0----------

-----------------------
-----------------------
-12-12--14-15-14-12-9--
-----------------------
-10-10--12-13-12-10-7--
-----------------------

4X
-----6------8-----10----------------------
-----6------8-----10----------------------
-----4------6------8---12----12--14-12----
-----5------7------9---12-14-12--------14-
------------------------------------------
-3-3----5-5----7-7------------------------

4X
-----------------
-----------------
-----------------
----5---7(9)-5---
-/7---7--------7-
-----------------

Back to intro 2X

Outro:
(continue pattern of repeating the half-note slides
And octave pairs 8x each)
-----------------------------12-12-15-15-17-17--20-20--
---------------1312--1514----------------------------
-1211--1413----------------9--9--12-12-14-14--17-17--
---------------109---1211----------------------------
-109---1211------------------------------------------
-------------------------------------------------------

Lyrics:

Here comes Ezy,
Ezy Ryder
Riding down the highway of desire.
He said the free wind takes him higher
Trying to find his heaven above,

But he`s dying to be loved
Dying to be loved.

He`s gonna be living so madly
Today is forever so he claims
He`s talking about dying it`s almost tragic baby
But don`t you worry about today
We got freedom coming our way

How long do you think he`s gonna last? Can I forecast?

See all the lovers say, do what you please.
Gotta get the brothers together and the right to be free.
In a cloud of angel dust I think I see me a freak.
Hey, motorcycle mama you gonna marry me?

Gonna be stoned crazy
Love come in kinda easy
Stoned crazy, baby

Log In to leave a comment

After registration we will return you to the same place
Comments
face-with-monocle
If you wait a bit, some comments may appear here...

Shhh...

Versions

Most Popular
You Might Like