• 0
  • Share
  • Font Size
Jesus Lizard – Whirl
Group: The Jesus Lizard
Song: Whirl
Album: Liar
Tabbed:Don Murta

Verse (Type 1):
G|-----------------|
D|-----------------|
A|-0-1-2---0-1-2---|
E|-------0-------0-|

Verse (Type 2):
G|-----------------|
D|-------2-------2-|
A|-0-1-2---0-1-2---|
E|-----------------|

Chorus:
G|---------------------------------|
D|---------------------------------|
A|-3-3-3-3-3-3-3-3-3-3-3-3-3-3-3-3-|
E|---------------------------------|

G|---------------------------------|
D|---------------------------------|
A|-5-5-5-5-5-5-5-5-5-5-5-5-5-5-5-5-|
E|---------------------------------|

Log In to leave a comment

After registration we will return you to the same place
Comments
face-with-monocle
If you wait a bit, some comments may appear here...

Shhh...

Most Popular