Jason Mraz logo

Halfway Home Jason Mraz

  • 0
  • Share
  • Font Size
    15
Jason Mraz – Halfway Home
Capo on 2nd fret

Main Riff:
E----------------------------------------------------
B------------------------------------------1-0-------
G----------0----------2-----------0-----------2-0----
D-------0---0--0--1--1--1----4--4---4------------2-0-
A--------2----2----0-----0----2-------2-3------------
E--0-2-3--------2----------0-------------------------

E-----------------------------------------------------
B-----------------------------------------------------
G----------0--------------2--------------0------------ (Repeat)
D----0---0---0------1---1---1------4---4---4----------
A------2-------2------0-------0------2-------2--------
E--3-------------2--------------0--------------0------

Log In to leave a comment

After registration we will return you to the same place
Comments
face-with-monocle
If you wait a bit, some comments may appear here...

Shhh...