James Gang logo

The Devils Singin Our Song James Gang

  • 3
  • Share
  • Font Size
James Gang – The Devils Singin Our Song
The Devil's Singin' Our Song  - by The James Gang (Bang !  Album)

With fond Memories of Jake Lengen
TABBED by hawkhuff

Intro & verse:
G-----------------|
D-------7-5-------|
A---H3/5---3--53--|
E--5--------5---5-|

Chorus: 4X then back to verse
Tonight I swear the devil's singin' our song.
G---------------|
D--33-55--------|
A-------3455-55-|
E---------------|

Bridge: Every time I see....
Back to chorus then to verse.
G---------------|------|
D--33-55--------|--3-5-|
A-------3455-55-|------|
E---------------|------|

Bridge during lead: then back to bridge.
G---------------|-------------|
D--33-55--------|-75----------|
A-------3455-55-|---75-35-----|
E---------------|--------5535-|

This is one of the riffs during the lead
G----------------------|
D--H5/7----5-5675------|
A------H5/7-7----7-53--|
E--------------------5-|

Outro:
G--------------------|--------------------|
D--------------57-57-|--------------75-75-|
A--33-55-------------|--33-55-------------|
E-------3455-55------|-------3455-55------|

Any questions: [email protected]

Log In to leave a comment

After registration we will return you to the same place
Comments
face-with-monocle
If you wait a bit, some comments may appear here...

Shhh...

Versions

Most Popular