Loading...
Jack Off Jill logo

Angels Fuck Jack Off Jill

  • 1
  • Share
  • Transposing
    0
  • Font Size
Angels Fuck (bass)
By Jack Off Jill
Tabbed by Ottis ([email protected])

G--------------------|----3-2-----2-1-----1-0------
D--3--3-2--2-1--1-0--|--3-------2-------1-------0--
A--------------------|-----------------------------
E--------------------|-----------------------------
Verse

G---------------
D
A-----8--7--6---
E--3------------ (The last time it's played, it ends on the G)
Chorus

G--------------
D
A--------3--6--
E--3--6--------
Ending

===================================================

Log In to leave a comment

After registration we will return you to the same place
Comments
face-with-monocle
If you wait a bit, some comments may appear here...

Shhh...