Loading...
  • 0
  • Share
  • Transposing
    0
  • Font Size
Intro:
Gtr1. D G
E------------------------|
H------------------------|
G------------------------|
D------7--5--------------| (Play 4 time)
A|----7--9---------------9--7--9--5--|
E|-5---------------------------------|
Verse1.
D
Там, где спины слепых камней
G
Моет лапой соленой море
Я опять прихожу к тебе
D Gmaj7
В даль забытых акваторий
Эта волна унесет нас с тобою
След на воде стелет гладь за кормой

Chorus.
G A m
Где-то лето далеко
G A D
Лето за стеною южных гор
G A m
Где-то лето далеко
G A
Лето..

D G D G A A7

Verse2.
Chorus.
Solo:
E--------------------7-7-5h7-------------------------------------------|
H|-8--7--5--3-2h3-2-----8--7--5--------------8--7--5--3-3-2h3-----8--7--8--7--7-5--|
G----------------------------------------------------------------------|
D----------------------------------------------------------------------|
A----------------------------------------------------------------------|
E----------------------------------------------------------------------|

E--------------------7-7-5h7-------------------------------------------|
H|-8--7--5--3-3-2h3-----8--7--5--------------8--7--5--3-3-2h3-----8--7--8--7-------|
G----------------------------------------------------------------------|
D----------------------------------------------------------------------|
A----------------------------------------------------------------------|
E----------------------------------------------------------------------|

Chorus.

Log In to leave a comment

After registration we will return you to the same place
Comments
face-with-monocle
If you wait a bit, some comments may appear here...

Shhh...