Loading...
Iron Maiden logo

Fallen Angel Iron Maiden

  • 0
  • Share
  • Transposing
    0
  • Font Size
#----------------------------------PLEASE NОТЕ--------------------------------#
#This file is the author's own work and represents their interpretation of the#
#song. You may only use this file for private study, scholarship, or research.#
#-----------------------------------------------------------------------------#
#-----------------------------------------------------------------------------#

Author/Artist: Iron Maiden
Title: The Fallen Angel
Album: Brave New World
Transcribed by: Swen О. Heiland
Email: [email protected]

---------------------------------------------------|--------------------------
---------------------------------------------------|--------------------------
---------------------------5-5-5-4-4-4---4---------|--------------------------
-------------5-------------------------7---7-5-4---|--------------------------
-5-7-7-7-7-7---7-7-7-7-7-7-----------------------5-|--------------------------
---------------------------------------------------|--------------------------
Intro/Interlude: Guitar 1 [4x]

---------------------------------------------------|--------------------------
---------------------------------------------------|--------------------------
---------------------------7-7-7-5-5-5-4-5-4---4---|--------------------------
-------------5-------------------------------7---5-|--------------------------
-5-7-7-7-7-7---7-7-7-7-7-7-------------------------|--------------------------
---------------------------------------------------|--------------------------

---------------------------------------------------|--------------------------
------------------------------------------------10-|--------------------------
-4--------4----4--------4-------------9--11--12----|--------------------------
-4--4--4--4----4--4--4--4--9--10--12---------------|--------------------------
-2--2--2--2----2--2--2--2--------------------------|--------------------------
---------------------------------------------------|--------------------------
ending on 4th time [just within intro]

---------------------------------------------------|--------------------------
---------------------------------------------------|--------------------------
-------------4-------------5-5-5-4-4-4---5---------|--------------------------
-4-5-5-5-5-5---5-5-5-5-5-5-------------7---7-5-7-5-|--------------------------
---------------------------------------------------|--------------------------
---------------------------------------------------|--------------------------
Intro/Interlude: Guitar 2 [enters on 3rd time]

---------------------------------------------------|--------------------------
---------------------------------------------------|--------------------------
------------------------------7--------------------|--------------------------
-2--2--------------2--2-------7---------3---4------|--------------------------
-2--2--------------2--2-------5---------5---4------|--------------------------
-0--0--0-0-0-0-0---0--0-----------------3---2------|--------------------------
pre Verse: [2x]

---------------------------------------------------|--------------------------
---------------------------------------------------|--------------------------
------------------------------5-------------7------|--------------------------
-2--2--------------2--2-------5---------5---7------|--------------------------
-2--2--------------2--2-------3---------5---5------|--------------------------
-0--0--0-0-0-0-0---0--0-----------------3----------|--------------------------

---------------------------------------------------|--------------------------
---------------------------------------------------|--------------------------
---------------------------------------------5-----|--------------------------
-2--2--------------2--2---------------2--2---5-----|--------------------------
-2--2--------------2--2---------------2--2---3-2---|--------------------------
-0--0--0-0-0-0-0---0--0---0-0-0-0-0---0--0-------3-|--------------------------
Verse: ['Azazel...'] [2x]

---------------------------------------------------|--------------------------
---------------------------------------------------|--------------------------
---------------------------------------------7-----|--------------------------
-2--2--------------2--2---------------2--2---7-----|--------------------------
-2--2--------------2--2---------------2--2---5-----|--------------------------
-0--0--0-0-0-0-0---0--0---0-0-0-0-0---0--0-----3-2-|--------------------------

---------------------------------------------------|--------------------------
---------------------------------------------------|--------------------------
-4--4----5--5----7--7----9------4--4----4---4------|--------------------------
-4--4----5--5----7--7----9------4--4----4-4-4------|--------------------------
-2--2----3--3----5--5----7------2--2----2-2-2------|--------------------------
---------------------------------------------------|--------------------------
Bridge ['You and only God will know...'] [4x]

---------------------------------------------------|--------------------------
---------------------------------------------------|--------------------------
-9--9----5-5--5-5---7-7--7-7-----------------------|-4--4--4--4---5---7-------
-9--9----5-5--5-5---7-7--7-7-----5----7------------|-4--4--4--4---5---7-------
-7--7----3-3--3-3---5-5--5-5-----5----7------------|-2--2--2--2---3---5-------
---------------------------------3----5------------|--------------------------
Chorus ['Could it be...'] [4x] ending on 4th time

-12-0-10-0-8-0-7-0-8-0-10-0-8-0-7-0-5---7----------|-7---5-7-8--/10-----------
---------------------------------------------------|--------------------------
---------------------------------------------------|--------------------------
---------------------------------------------------|--------------------------
---------------------------------------------------|--------------------------
---------------------------------------------------|--------------------------
Chorus Harmony [starting at the 2nd chorus] ending on 4th time

---------------------------------------------------|--------------------------
---------------------------------------------------|--------------------------
-6---------------6---4---------4-----9---8---------|--------------------------
-6---------------6---4---------4-----9---8---------|--------------------------
-4-4-4-4-4-4-4-4-4---2-2-2-2-2-2-----7---6---------|--------------------------
---------------------------------------------------|--------------------------
Rhythm for Solo 1 [4x]

---------------------------------------------------|--------------------------
---------------------------------------------------|--------------------------
---------------------------------------------------|--------------------------
-6---------------6---4---------4-----9---8---------|--------------------------
-6---------------6---4---------4-----9---8---------|--------------------------
-4-4-4-4-4-4-4-4-4---2-2-2-2-2-2-----7---6---------|--------------------------
Rhythm for Solo 2 [4x]

---------------------------------------------------|--------------------------
---------------------------------------------------|--------------------------
-4--------------4------5-------4-------------------|--2----4------------------
-4--4--4--4--4--4------5-------4-------------------|--2----4------------------
-2--2--2--2--2--2------3-------2-------------------|--0----2------------------
---------------------------------------------------|--------------------------
Rhythm for Solo 3 [4x] ending on 4th time

---------------------------------------------------|--------------------------
---------------------------------------------------|--------------------------
-9--------------------------------9-----9-----9----|--------------------------
-9--9--9--9--9--9--9--9--9--9--9--9-----9-----9----|--------------------------
-7--7--7--7--7--7--7--7--7--7--7--7-----7-----7----|--------------------------
---------------------------------------------------|--------------------------
Оuтrо: Guitar 1

---------------------------------------------------------------------------|--
----------------------------------8-8-8-8-8-8-8-8-8-8-10-10-10-10-10-10-10-|--
-9--9--9--9--9--9--9--9--9--9--9-------------------------------------------|--
---------------------------------------------------------------------------|--
---------------------------------------------------------------------------|--
---------------------------------------------------------------------------|--
Оuтrо Harmony: Guitar 2 [with extensive use of WahWah]

Back

Log In to leave a comment

After registration we will return you to the same place
Comments
face-with-monocle
If you wait a bit, some comments may appear here...

Shhh...