Iron Maiden logo

Back In The Village Iron Maiden

  • 0
  • Share
  • Font Size
Iron Maiden – Back In The Village
E|-------------------------------------------------------------|
B|-----------------5p2---2-4p2---2-----------------5p2---2-2~--|
G|---------------------5--------5-----------------------5------|
D|-----5-----4-------------------------5-----4-----------------|
A|-0-0---0-0---0-0----------------0-0---0-0---0-0--------------|
E|-------------------------------------------------------------|

Verse

E|-------------------------------------------------------------|
B|-----------------5p2---2-4p2---2-----------------5p2---2-2~--|
G|---------------------5--------5-----------------------5------|
D|-----5-----4-------------------------5-----4-----------------|
A|-0-0---0-0---0-0----------------0-0---0-0---0-0--------------|
E|-------------------------------------------------------------|

E|-------|
B|-6---8-|
G|-5---7-|
D|-3---5-| play twice
A|-------|
E|-------|

White flags shot to ribbons....

E|-----------------------------------------|
B|-----------------------------------------|
G|-7---3---0---5------7---3---0--2--2---2--|
D|-7---3---5---5---7--7---3---5--2--4---2--|
A|-5---1---2---3---4--5---1---2--0--0---0--|
E|-----------------------------------------|

Chorus

E|-------------------------------------------------------|
B|-------------------------------------------------------|
G|-5-5-4p0-----5-5-4p0-----5-5-4p0-----------------------|
D|---------3p0----------3p0---------3p0-3p0-----3p0------|
A|-------------------------------------------3p0-----3p0-|
E|-------------------------------------------------------|

E|------------------------------------------|
B|-5-5-4p0-----5-5-4p0----------------------|
G|---------3p0----------3p0-5-5-------------|
D|--------------------------5--5--5--repeat-|
A|--------------------------3--3--5---------|
E|--------------------------------3---------|

E|-------------------------------------------------------------|
B|-------------------------------------------------------------|
G|-----------0h5h7--------------------------0h5h7------5~-repeat
D|--0h2p0h5h7------0h5p0----------0h2p0h5h7------0h5h7---------|
A|0----------------------5p0-----0-----------------------------|
E|---------------------------5p0-------------------------------|

Interlude

E|5-5----5---5----8p5-----------------------5------------------|
B|-8--8p6--8---8p6----6-6-5p3-6p3-6-5p3-6p3-6-3-6-5p3-6p3-6-5p3|
G|-------------------------------------------------------------|
D|-------------------------------------------------------------|
A|-------------------------------------------------------------|
E|-------------------------------------------------------------|

E|-----5------------------------------|
B|-6p3---6-3-8p6-8p5-----8p6-8p5------|
G|--------------------7-5---------7-6-|
D|------------------------------------|
A|------------------------------------|
E|------------------------------------|

Ending 2

E|---------------|
B|-8p6-8p5-------|
G|---------7-----|
D|-----------6---|
A|-----------5h7-|
E|---------------|

Solo rhythm

E|--------------------------|
B|--------------------------|
G|---8-7------7---5---0dive-|
D|---8-7------7---5---0-----|
A|-0------------------------|
E|--------------------------|

But still we walk in.....

E|--------------------------------------------------|
B|--------------------------------------------------|
G|--------------------------------------------------|
D|-9---------------7----------------repeat--then-7--|
A|-7---------------5-----------------------------7--|
E|-0-0-000000000-0--000000000000--------------5-----|

Outro repeat chorus

Ends with

E|-----|
B|--3--|
G|--2--|
D|--0--|
A|-----|
E|-----|

Log In to leave a comment

After registration we will return you to the same place
Comments
face-with-monocle
If you wait a bit, some comments may appear here...

Shhh...