Loading...
Insane Clown Posse logo

Piggy Pie Insane Clown Posse

  • 0
  • Share
  • Transposing
    0
  • Font Size
Insane Clown Posse - Piggy Pie
Submitted By: Jason Lee
EMail: [email protected]
Album: The Great Milenko

Intro/chorus:
G:--------------------------0-------|
D:------------------------2---2---2-|
A:--4-------4-------4---4-------4---|
E:----------------------------------|
1 + 2 + 3 + 4 + |

Verse:
G:----------6---------------0-----0-|
D:----------------------2-------2---|
A:--4-------------------------------|
E:----------------------------------|
1 + 2 + 3 + 4 + |

G:----------6-------------0-2-0---0-|
D:----------------------2-------2---|
A:--4-----------------4-------------|
E:----------------------------------|
1 + 2 + 3 + 4 + |

Enjoy

Tabbed out 11/8/02 by =jl=

===================================================

Log In to leave a comment

After registration we will return you to the same place
Comments
face-with-monocle
If you wait a bit, some comments may appear here...

Shhh...

Most Popular
You Might Like