Loading...
  • 0
  • Share
  • Transposing
    0
  • Font Size
Author: KC

First Bass Line
G----------------
D
A-----4---5---4-
E-0-------------

Verse (and Fuck Off Part)
G-----------------
D
A-----4---55--4---
E-0--------------

Shaggy’s Part (there’s other notes)
G----------------
D
A-------5---4/---
E--5-------------

Chorus “Homies, Homieeeeeeeeeees”
G-----------------------------|------------------
D-----------------------------|------------------
A-------44---2222-------------|------------------
E-0--0------------------------|-5-(x8)-7(x8)-----

Twiztid’s Part
G-------------------------
D
A-----44444---555--44444---
E-000---------------------------------

Any comments or corrections let me know at [email protected]

Log In to leave a comment

After registration we will return you to the same place
Comments
face-with-monocle
If you wait a bit, some comments may appear here...

Shhh...