Loading...
Incubus logo

Wish You Were Here Incubus

  • 0
  • Share
  • Transposing
    0
  • Font Size
Tuning: Standard [E A D G B E]
^ - Hammer On
\ - Slide Up
/ - Slide Down
Intro Part 1
Clean (For better sound, try an acoustic for this part)
[E-------------------------------------------------------------------
B-------------------------------------------------------------------
G
D-7-77^9--9-9-9-9--9--4--4-4/7--7--2-22-2-------------------------
A-7-77-7--7-7-7-7--7--2--2-2/5--5--2-22-2-------------------------
E-------------------------------------------------------------------]
Play twice, then go into this...
Intro Part 2/Chorus
Medium Distortion
"I... wish you were here..."
[E-------------------------------------------------------------------
B-------------------------------------------------------------------
G
D-7--7-7-/-99--9-9-9-9--4--44-/-77--2-2---------------------------
A-7--7-7-/-77--7-7-7-7--2--22-/-55--2-2---------------------------
E-5--5-5-/-77--7-7-7-7--2--22-/-55--0-0---------------------------]
End on...
[E---
B---
G
D-7-
A-7-
E-5-]

-

V strum down
^ strum up
You'll have to find the lyrics somewhere else. I are not to good words
[---------------------------------------------------------------------------

-----4-4-4----4-4-x-4--4------------------------9--------9-/-11------------
-------2-2----2-2-x-2--2-----4-4-4/7--2-2-2-9--9--2-2-2-------------------
--0--------2--------------4--4-4-4/7--2-2-2-7--7--2-2-2-7-/-9-------------
-----------0--------------2-------/5--0-0-0-7--7--0-0-0-------------------]
Intro^ v ^ v ^ v ^ v ^ v ^ v ^ v ^ v ^ v ^ end v v
[----------------------------------------------------------------------------
--0--0-0-0-0--0-0-0-0--0----------------------------------------------------
--4--4-4-4-4--4-4-4-4--4-------------------------9--------------------------
--2--2-2-2-2--2-2-2-2--2--4--4-4-4--7--2-2-2-9--9--------------------------
--0--0-0-0-2--2-2-2-2--2--4--4-4-4--5--2-2-2-7--7--------------------------
-----------0--0-0-0-0--0--2--2-2-2--5--0-0-0-7--7--------------------------]
chorus ^
[----------------------------------------12-----------------------------------
-----7---7---7------7------7---------------109h10------7---7---7------7------
---9---9---9---6--9---6--9---6-------11--------------9---9---9---6--9---6----
--------------------------------9/11-----------------------------------------

-----------------------------------------------------------------------------]
v ^ ^ ^ v ^ v verse v v ^ ^
[-----------------------------------------------------------------------------
---7-----------9--------7----------------------------------------------------
-9---6-------9---11---9---9--------------------------------------------------
--------9/11-----------------------------------------------------------------

-----------------------------------------------------------------------------]
v ^ v v ^ v

Log In to leave a comment

After registration we will return you to the same place
Comments
face-with-monocle
If you wait a bit, some comments may appear here...

Shhh...