Incubus logo

When It Comes Incubus

  • 1
  • Share
  • Font Size
Incubus – When It Comes
Song - When it comes
Artist - Incubus
Album - Make yourself
Tabbed by Tom Kelly
Standard tuning

Intro
E|-------------------------------------------
B|-------------------------------------------
G|-------------------------------------------
D|-------------------------------------------
A|--5-3-2-3-2h3p2p0-2-2--2-2-0--2-2-2-2-3-3--
E|-------------------------------------------

Verse

Part 1 () played by guitar 2
E|-------------------------------------------
B|----------(12-12-12-12-12-12)--------------
G|-------------------------------------------
D|--4----------------------------------------
A|----2-2-2----------------------------------
E|-------------------------------------------

Part 2
E|--------------------------------------------
B|-------------0------------------------------
G|-------------4-------------0----------------
D|---4---------4---4---------5----------------
A|-----2-2-2-2-2-----2-2-2-2-5----------------
E|---------------------------3----------------

Chorus

Part 1
E|-------------------------------------------
B|-------------------------------------------
G|--7-7-4-4-2-2-5---7-7-4-4-2-2-5------------
D|--7-7-4-4-2-2-5---7-7-4-4-2-2-5------------
A|--5-5-2-2-0-0-5---5-5-2-2-0-0-5------------
E|--------------3---------------3------------

Part 2 what i'm looking for........
E|----------------------------------------------------
B|----------------------------------------------------
G|--------6-6-6-------------------6-6-6---------------
D|---5-5--6-6-6-5-5-5-7-7-7-------6-6-6--5-5-5-7-7-7--
A|---5-5--4-4-4-5-5-5-7-7-7-------4-4-4--5-5-5-7-7-7--
E|---3-3--------3-3-3-5-5-5--------------3-3-3-5-5-5--

Outro
E|---------------------------------------
B|---------------------------------------
G|--------4-4-4--4-4--4-4--4-4-4-4--5-5--
D|----4---4-4-4--4-4--4-4--4-4-4-4--5-5--
A|------2-2-2-2--0-2--0-2--2-2-2-2--3-3--
E|---------------------------------------

Log In to leave a comment

After registration we will return you to the same place
Comments
face-with-monocle
If you wait a bit, some comments may appear here...

Shhh...

Most Popular
You Might Like