Incubus logo

Under My Umbrella Incubus

  • 2
  • Share
  • Transposing
    0
  • Font Size
Incubus – Under My Umbrella
Tuning: [EADGBE] (STANDARD)

Intro:[e-------------------------------------------------------
B
G--10------10-----6------2----2--10-10-10--8------------
D--x--12X--x--6X--6-6X---3-7X-3--x--x--x---x-6X-6-------
A--8-------8------4------3----3--8--8--8---6----6-------
E----------9------4----0-1----1s-----------4----4-------]

Intro Continued- Repeat, listen to song for timing
[e-------------------------------------------------------
B-------------------------------------------------------
G
D-8-8-8--6-6-6-6-6-------repeat-------------------------
A-8-8-8--6-6-6-6-6--------------------------------------
E-6-6-6--4-4-4-4-4--------------------------------------

Verse:e-------------------------------------------------------
B-------------------------------------------------------
G
D-3(15)3(15)--------------------------------------------
A------------6(18)-6(18)--------------------------------
E------------------------4(16)----3(15)---]

Log In to leave a comment

After registration we will return you to the same place
Comments
face-with-monocle
If you wait a bit, some comments may appear here...

Shhh...

Most Popular
You Might Like