Incubus logo

Nice To Know You Live Incubus

  • 0
  • Share
  • Font Size
Incubus – Nice To Know You Live
#-----------------------------------------------------------------------------#
#-----------------------------------------------------------------------------#

Author/Artist: incubus
Title: nice to know you
Transcribed by: Saverain
Email: [email protected]

V strum down
^ strum up

You'll have to find the lyrics somewhere else. I are not to good words

-|------------------|-------------------------------------------|-------------|
-|-10-v-v-v-v-v-v-v-|-------------------------------------------|-------------|
-|-11---------------|-------------------------------------------|-------------|
-|------------------|-------------------------------------------|-------------|
-|------------------|-------5-5-------------------5-5-----------|-------------|
-|------------------|-0-2-2------0-0-0-2-2--0-2-2------0-0-2---|-------------|
intro bass intro

-|---------------------------------------------------------|------------------|
-|---------------------------------------------------------|------------------|
-|-------7-7--7----------------7-7--7----------------------|------------------|
-|---4-4-7-7--7-----4-4----4-4-7-7--7-----4-4-4-4-4/-7-7-7-|------------------|
-|-0-4-4-5-5--5-0-0-4-4--0-4-4-5-5--5-0-0-4-4-4-4-4/-7-7-7-|------------------|
-|-0-2-2-5-5--5-0-0-2-2--0-2-2-5-5--5-0-0-2-2-2-2-2/-5-5-5-|------------------|
v ^ v ^ v v ^ v ^ v chorus ^ v ^ ^ v ^

-|-------------|-----------|------------|-------------|------------|---------|
-|-------------|-----------|------------|-10----------|-10---------|-10------|
-|-------------|-----------|------------|-11----------|-11---------|-11------|
-|-4-----------|-4---------|------------|-------------|------------|---------|
-|-x-----------|-x---------|-x-x--------|-------------|------------|---------|
-|-2-----------|-2---------|------------|-------------|------------|---------|
verse

-|-------------|------------|------------|------------|---------|-------------|
-|-10----------|------------|-10---------|-10---------|-10------|-------------|
-|-11----------|------------|-11---------|-11---------|-11------|-------------|
-|-------------|------------|------------|------------|---------|-------------|
-|-------------|-x/x--------|------------|------------|---------|-------------|
-|-------------|------------|------------|------------|---------|-------------|

-|-0--0-0-0--0-0--0-0--0-0--0--0-0-0--0-0--0-0--0-0-----0-0-0-0--0-0--0-0-0-0-|
-|-0--0-0-0--0-0--0-0--0-0--0--0-0-0--0-0--0-0--0-0-----0-0-0-0--0-0--0-0-0-0-|
-|-2--2-2-2--2-2--2-2--2-2--1--1-1-1--1-1--1-1--1-1--4--4-4-4-4--4-4--4-4-4-4-|
-|-2--2-2-2--2-2--2-2--2-2--2--2-2-2--2-2--2-2--2-2--5--5-5-5-5--5-5--5-5-5-5-|
-|-0--0-0-0--0-0--0-0--0-0--0--0-0-0--0-0--0-0--0-0--5--5-5-5-5--5-5--5-5-5-5-|
-|---------------------------------------------------3--3-3-3-3--3-3--3-3-3-3-|
v v ^ v v ^ ^ ^ v ^ pre chorus v v ^ v ^ ^ ^ v ^ v ^

-----0-0--0-0--0-0------|----0-0--0--0--0--0-0-0-0-0-0-0-0-|----------|-------|
-----0-0--0-0--0-0------|----0-0--0--0--0--0-0-0-0-0-0-0-0-|----------|-------|
--3--3-3--3-3--3-3-2-2--|-3--3-3--3--3--3--3-3-3-3-3-3-3-3-|----------|-------|
--4--4-4--4-4--4-4-2-2--|-4--4-4--4--4--4--4-4-4-4-4-4-4-4-|----------|-------|
--4--4-4--4-4--4-4-0-0--|-4--4-4--4--4--4--4-4-4-4-4-4-4-4-|----------|-------|
--2--2-2--2-2--2-2------|-2--2-2--2--2--2--2-2-2-2-2-2-2-2-|----------|-------|
v v ^ ^ ^ ^ v ^ v end with this chorus

-|--------|--------|----------|---------|-----------------------------|-------|
-|--------|--------|----------|---------|----0-0----0-0--0-0--0-0-0-0-|-------|
-|--------|--------|----------|---------|----0-0----0-0--0-0--0-0-0-0-|-------|
-|--------|--------|----------|---------|-4--4-4-2--2-2--2-2--2-2-2-2-|-------|
-|--------|--------|----------|-0-4-5-0-|-5--5-5-3--3-3--3-3--3-3-3-3-|-0-4-5-|
-|--------|--------|----------|---------|-----------------------------|-------|
verse prechorus chorus v v ^ v ^ v ^ v v ^ ^ v v ^ v

-----------------------------------------|---------------|-----------|--------|
---------0-------------0-0--0-0--0-0-0-0-|---------------|-----------|--------|
-------0---------------0-0--0-0--0-0-0-0-|---------------|-----------|--------|
-----4-------4-----2--2-2--2-2--2-2-2-2-|---------------|-----------|--------|
-0-5---------5-----3--3-3--3-3--3-3-3-3-|---------------|-----------|--------|
-----------------------------------------|---------------|-----------|--------|
inter repeatv v ^ v ^ v v ^ ^ v pre-chorus chorus

-|-----------------|----------------------------------------------------------|
-|-----------------|----------------------------------------------------------|
-|---------4-4-4-2-|-2-2------------------------------------------------------|
-|---4-4---4-4-4-2-|-2-2------------------------------------------------------|
-|-0-4-4-0-2-2-2-0-|-0-0------------------------------------------------------|
-|-0-2-2-0-2-2-2---|----------------------------------------------------------|
last measure of chorus

Log In to leave a comment

After registration we will return you to the same place
Comments
face-with-monocle
If you wait a bit, some comments may appear here...

Shhh...

Most Popular
You Might Like