Loading...
Incubus logo

Monuments And Melodies Incubus

  • 0
  • Share
  • Transposing
    0
  • Font Size
This is an excellent song.  It's the b-side to the 'megalomaniac' single and
Features on the Japanese edition of 'a crow left of the murder'. This is not
My tab. Send comments/questions/praise/whatever else to [email protected]
The tab's pretty close, there's a few things I didn't like about it, but I felt
It was worth putting onto the UG database.

Song: Monuments and melodies
Band: Incubus
Album: A Crow left of the murder ( jap.limited edition )
Tabber: dbethge [email protected]

Standard Tuning

Chords

Amin C F dmin5 G G# cmaj5 E
- - - - - or - - - -
E 0 0 1 5 3 3 4 8 0
h 1 1 1 6 3 3 4 8 0
G 2 0 2 7 0 4 5 9 1
D 2 2 3 7 0 5 6 10 2
A 0 3 3 5 2 5 6 10 2
E x x 1 x 3 3 4 8 0
- - - - - - - - -

Verse ( Song starts with verse )

My hand.....

Amin Amin C

E |----------0-------0--|---0-0-0-------------|
B |----------1-------1--|---1-1-1-------------|
G |--------2-------2----|-0-0-0-0-------2-----| ( Repeat 4 times )
D |------2-------2------|-0-2-2-2---------3---|
A |----0-------0--------|-0-3-3-3-----------3-|
E |---------------------|-----------0-1-------|

then pre Chorus

E E Amin

E |-0-----------0----------|
B |-0-----------0----------|
G |-1-----------1---0------|
D |-2---0-------2-----0----|
A |-2-----2-----2--0----0--|
E |-0-0-----0---0----------|

Chorus

You make me...

Amin C F Dmin Amin c G F

E |-0-0-0--0--0--0--1-1-1------5--0--0-0-0--0--0--0-3-3--0---1--|
B |-1-1-1--1--1--0--1-1-1------6--0--1-1-1--1--1--0-3-3--0---1--|
G |-2-2-2--0--0--0--2-2-2------7--0--2-2-2--0--0--0-0-0--0---2--| ( Repeat 2X )
D |-2-2-2--2--2-----3-3-3--s/5-7-----2-2-2--2--2----0-0----3----|
A |-0-0-0--0--3-----3-3-3--s/5-5-----0-0-0--0--3----2-2----3----|
E |-----------------1-1-1---------------------------3-3----1----|

Verse

Amin C
E |----------0-------0--|---0-0-0-------------|
B |----------1-------1--|---1-1-1-------------|
G |--------2-------2----|-0-0-0-0-------2-----| ( Repeat 4 times )
D |------2-------2------|-0-2-2-2---------3---|
A |----0-------0--------|-0-3-3-3-----------3-|
E |---------------------|-----------0-1-------|

then pre Chorus

E E Amin

E |-0-----------0----------|
B |-0-----------0----------|
G |-1-----------1---0------|
D |-2---0-------2-----0----|
A |-2-----2-----2--0----0--|
E |-0-0-----0---0----------|

Chorus

You make me...

Amin c F Dmin Amin C G F

E |-0-0-0--0--0--0--1-1-1------5--0--0-0-0--0--0--0-3-3--0---1--|
B |-1-1-1--1--1--0--1-1-1------6--0--1-1-1--1--1--0-3-3--0---1--|
G |-2-2-2--0--0--0--2-2-2------7--0--2-2-2--0--0--0-0-0--0---2--| ( Repeat 2X )
D |-2-2-2--2--2-----3-3-3--s/5-7-----2-2-2--2--2----0-0----3----|
A |-0-0-0--0--3-----3-3-3--s/5-5-----0-0-0--0--3----2-2----3----|
E |-----------------1-1-1---------------------------3-3----1----|

Bridge

Where will i see you again.....

3X 1X

c# F Cmaj5 C# F

E |----4~---4-4-----1-----1/8---8---8----|--4---4-4-----1--|
B |----4~---4-4-----1-----1/8---8---8----|--4---4-4-----1--|
D |----5~---5-5-----2-----2/9---9---9----|--5---5-5-----2--|
G |----6~---6-6--0--3-----3/10--10--10---|--6---6-6--0--3--|
A |----6~---6-6--0--3-----3/10--10--10---|--6---6-6--0--3--|
E |----4~---4-4--0--1-----1/8---8---8----|--4---4-4--0--1--|

SOLO

[rake]
E |---------------x------10-10/7/5-5-5-10/7/5-5-5-7--8-8---8------------------------------------------|
B |---------------15-------------------------------------8-8---------10-11-12-10-11-12-12-12----------|
D |-12h14---12----x--------------------------------------------------------------------------12-12-12-|
G |---------------x-----------------------------------------------------------------------------------|
A |---------------x-----------------------------------------------------------------------------------|
E |---------------x-----------------------------------------------------------------------------------|

[rake]

E |------------------------------------------------------------------------------------15---------------|
B |10-11-12--10-11-12--10h11h12--------------------------------------------------------x---12--12h13-13~|
D |------------------------------10-9-9h10-9----------------12/14----14----------------x----------------|
G |--------------------------------------------10-10--12-10-12/14----14-----------12---x----------------|
A |---------------------------------------------------------------12----12--12h14------x----------------|
E |------------------------------------------------------------------------------------x----------------|

I could't figure out the full harminic part yet, only that it is played something like this..

( end with pre chorus)
E |-------------------------------------------15-----------------------------------|
B |---------------------------------------------------15---------------------------|
D |-----------------------------------(x)--(12)------------------------------------|
G |--------------------------(x)--(12)-----------(12)------(x)------12p10--10h12~~-|
A |-----------------(x)--(12)--------------------------(12)------------------------|
E |--------------(12)------------------------------------------(12)----------------|

Pre Chorus

E E Amin
E |-0-----------0----------|
B |-0-----------0----------|
G |-1-----------1---0------|
D |-2---0-------2-----0----|
A |-2-----2-----2--0----0--|
E |-0-0-----0---0----------|

Chorus

You make me...

Amin C F Dmin Amin C G F
E |-0-0-0--0--0--0--1-1-1------5--0--0-0-0--0--0--0-3-3--0---1--|
B |-1-1-1--1--1--0--1-1-1------6--0--1-1-1--1--1--0-3-3--0---1--|
G |-2-2-2--0--0--0--2-2-2------7--0--2-2-2--0--0--0-0-0--0---2--| ( Repeat 4X )
D |-2-2-2--2--2-----3-3-3--s/5-7-----2-2-2--2--2----0-0----3----|
A |-0-0-0--0--3-----3-3-3--s/5-5-----0-0-0--0--3----2-2----3----|
E |-----------------1-1-1---------------------------3-3----1----|

Outro .. the song simply ends with a c#( let ring out )

C#

E |-4-|
B |-4-|
G |-5-|
D |-6-|
A |-6-|
E |-4-|

Have fun with the song. Very melodic one. Corrections are welcome.
But i think it is correct. Only the harmonic solopart is upgradable!

Log In to leave a comment

After registration we will return you to the same place
Comments
face-with-monocle
If you wait a bit, some comments may appear here...

Shhh...

Most Popular
You Might Like