Incubus logo

Megalomaniac Incubus

  • 0
  • Share
  • Font Size
Incubus – Megalomaniac
This is the version from there set on Lollapalooza. I have never been a true fan
Of incubus until I saw them there. I heard this on there website and desided to
Tab it out since i was amazed by the guitar work.
This song is on there new record that better be released soon, because it's gonna
Be tight when it comes out.

Standard tuning (e,a,d,g,b,e)

Intro
E|---------------/-----------------------------
B|---------------/-----------------------------
G|-0-0-0-0-0-0-0-/-0-0-0-0-0-0-0-0-0-0-0-0-0-0-
D|-5-5-5-5-5-5-5-/-3-5-5-5-7-8-8-0-1-1-1-1-1-1-
A|---------------/-----------------------------
E|---------------/-----------------------------
^ ^ ^
Keep struming fastly

Chorus
E|--------------------------------------
B|--------------------------------------
G|-----------8-8-5-5--------------------
D|-5-3-5-8-8-8-8-5-5--------------------
A|-5-3-5-8-8-6-6-3-3--------------------
E|-3-1-3-6-6-6-6-3-3--------------------

Verse
E|---------/--------/-----------/----------/-----------/-------------
B|--------6/-------6/-------8-6-/---------6/-------8-6-/-------6-4---
G|----0----/--------/-----------/-----0----/-----------/-------------
D|3-5---5--/---5----/---8------8/-3-5---5--/---8------8/---5-------5-
A|---------/-3---3--/-6---6-----/----------/-6---6-----/-3---3-------
E|---------/--------/-----------/----------/-----------/-------------
Play this Twice
He adds lots of fills, but there tricky to figure out.

Pre Chorus- Same as intro
Chorus
Verse
Pre chorus
Chorus

Bridge part 1- Lots of pick scraping, don't really play any notes

Bridge part 2
E|----10----8-10---/-----10-----8-10----
B|---8--8--------X2/---10--10--------X2-
G|-10-----10-------/-12-------12--------
D|--------------------------------------
A|--------------------------------------
E|--------------------------------------

Guitar solo
E|------10------10------10------8-10---
B|---10---10-------10------10-------X4-
G|-12--------12-------12------12-------
D|-------------------------------------
A|-------------------------------------
E|-------------------------------------

Pre Chorus
Just the two notes at beginning

Chorus

That's it. I know it's probably not right, but who cares.

Log In to leave a comment

After registration we will return you to the same place
Comments
face-with-monocle
If you wait a bit, some comments may appear here...

Shhh...

Most Popular
You Might Like