Loading...
Incubus logo

Make Yourself Incubus

  • 0
  • Share
  • Transposing
    0
  • Font Size
<
Make Yourself - Incubus
^v^v^v^v^v^v^v^v^v^v^v^v^v^v^v^v^v^v^v^v^v^v^v^v^v^v^v^v^v^v^v^v^v^v^v^v^v^v^v^

Tabbed by: Jake Soucie

Tuning: Standard

This version is absolutly correct, 100%! It's right from the book note-for-note.

Slight distortion
E|--------------------------|------------------------------|
B|--------------------------|------------------------------|
G|--------------------------|------------------------------|
D|-0--0-0-0--0-0-0----------|-0--0-0-0--0-0-0------------0-|
A|-9--x-5-5--x-5-5--0-5-7---|-9--x-5-5--x-5-5--0-5-5-6-6---|
E|-7--x-3-3--x-3-3--0-6-6-0-|-7--x-3-3--x-3-3--0-6-6-7-7---| X4

Slight distortion (little more than before)
E|--------------------------|------------------------------|
B|----0-0----0-0----0-------|----0-0----0-0----0-----------|
G|----0-0----0-0----0-------|----0-0----0-0----0-----------|
D|----x-x----x-x----x-------|----x-x----x-x----x-----------|
A|-9--x-5-5--x-5-5--x-7-7-7-|-9--x-5-5--x-5-5--x-5-5-7-7-7-|
E|-7--x-3-3--x-3-3--x-6-6-6-|-7--x-3-3--x-3-3--x-6-6-6-6-6-| X2

Distortion (this is done quickly before the first short chorus)
E|---------------|
B|---------------|
G|---------------|
D|-0-----------0-|
A|-0-5-5-7-7-7-0-|
E|-0-6-6-6-6-6-0-| X1

First Chorus (full distortion)
E|---------------------------|-----------------------------------------------|
B|---------------------------|-----------------------------------------------|
G|-7--7-7--7-7---------------|----------------7*-7*-7*/5*-5*-5*/4*-----------|
D|-7--7-7--7-7--8-8-8-8--8-8-|--5-5-5-5--5-5---------------------------------|
A|-5--5-5--5-5--8-8-8-8--8-8-|--5-5-5-5--5-5---------------------------------|
E|-5--5-5--5-5--6-6-6-6--6-6-|--3-3-3-3--3-3---------------------------------|
Harm |-------------------|

Slight distortion
E|--------------------------|------------------------------|
B|----0-0----0-0----0-------|----0-0----0-0----0-----------|
G|----0-0----0-0----0-------|----0-0----0-0----0-----------|
D|----x-x----x-x----x-------|----x-x----x-x----x-----------|
A|-9--x-5-5--x-5-5--x-7-7-7-|-9--x-5-5--x-5-5--x-5-5-7-7-7-|
E|-7--x-3-3--x-3-3--x-6-6-6-|-7--x-3-3--x-3-3--x-6-6-6-6-6-| X2

More distortion
E|--------------------------|------------------------------|
B|--------------------------|------------------------------|
G|--------------------------|------------------------------|
D|-9--x-5-5--x-5-5--x-------|-9--x-5-5--x-5-5--x-----------|
A|-9--x-5-5--x-5-5--x-7-7-7-|-9--x-5-5--x-5-5--x-5-5-7-7-7-|
E|-7--x-3-3--x-3-3--x-6-6-6-|-7--x-3-3--x-3-3--x-6-6-6-6-6-| X2

Second Chorus (Full distorsion)
E|---------------------------|--------------------------------------|
B|---------------------------|--------------------------------------|
G|-7--7-7--7-7---------------|----------------7*-7*-7*/5*-5*-5*/4*--|
D|-7--7-7--7-7--8-8-8-8--8-8-|--5-5-5-5--5-5------------------------|
A|-5--5-5--5-5--8-8-8-8--8-8-|--5-5-5-5--5-5------------------------|
E|-5--5-5--5-5--6-6-6-6--6-6-|--3-3-3-3--3-3------------------------|
Harm |-------------------|

Second Chorus (con't)
E|---------------------------|----------------------------|
B|---------------------------|----------------------------|
G|-7--7-7--7-7--3-3-3-3--3-3-|----------------------------|
D|-7--7-7--7-7--3-3-3-3--3-3-|--5-5-5-5--5-5--3-3-3-3-3-3-|
A|-5--5-5--5-5--1-1-1-1--1-1-|--5-5-5-5--5-5--3-3-3-3-3-3-|
E|-5--5-5--5-5--1-1-1-1--1-1-|--3-3-3-3--3-3--1-1-1-1-1-1-|

Second Chorus (con't)
E|---------------------------|----------------------------|
B|---------------------------|----------------------------|
G|-7--7-7--7-7--3-3-3-3--3-3-|----------------5-5-5-5-----|
D|-7--7-7--7-7--3-3-3-3--3-3-|--5-5-5-5--5-5--5-5-5-5-5-7-|
A|-5--5-5--5-5--1-1-1-1--1-1-|--5-5-5-5--5-5--3-3-3-3-5-7-|
E|-5--5-5--5-5--1-1-1-1--1-1-|--3-3-3-3--3-3----------3-5-|

Second Chorus (con't)
E|---------------------------|----------------------------|
B|---------------------------|----------------------------|
G|-7--7-7--7-7--3-3-3-3--3-3-|----------------------------|
D|-7--7-7--7-7--3-3-3-3--3-3-|--5-5-5-5--5-5--3-3-3-3-3-3-|
A|-5--5-5--5-5--1-1-1-1--1-1-|--5-5-5-5--5-5--3-3-3-3-3-3-|
E|-5--5-5--5-5--1-1-1-1--1-1-|--3-3-3-3--3-3--1-1-1-1-1-1-|

Interlude pt.1 (slight distortion)
E|---------------------------|--------------------------|
B|---------------------------|--------------------------|
G|---------------------------|--------------------------|
D|-7--x-9---x-5---x-5---x-x--|-7--x-9---x-5---x-5---7-7-|
A|-9--x-7---x-7---x-x---x-x--|-9--x-7---x-7---x-x---x-x-|
E|------------------6---x-x--|------------------6---6-6-| X4

Interlude pt.2
E|---------------------------|--------------------------|
B|---------------------------|--------------------------|
G|---------------------------|--------------------------|slight distortion
D|-7--x-9---x-5--------------|-7--x-9---x-5-------------|
A|-9--x-7---x-7--------------|-9--x-7---x-7-------------|
E|---------------------------|--------------------------|
| | |X2(plus repeat 1 section)(so 2 1/2)
E|---------------------------|--------------------------|
B|-----------------0---0---0-|----------------0---0---0-|
G|-----------------0---0---0-|----------------0---0---0-|
D|---------------0-5-0-5-0-5-|--------------0-5-0-5-0-5-|Heavy distortion
A|---------------0-x-0-x-0-x-|--------------0-x-0-x-0-x-|
E|---------------0-6-0-6-0-6-|--------------0-6-0-6-0-6-|

Interlude pt.3
E|------------------------|------------------------|
B|------------------------|------------------------|
G|------------------------|------------------------|
D|-9--x-5-5--x-5-5-5-5--5-|-9--x-5-5--x-5-5-5-5--5-|
A|-9--x-5-5--x-5-5-5-x--x-|-9--x-5-5--x-5-5-5-x--x-|
E|-7--x-3-3--x-3-3-3-6--6-|-7--x-3-3--x-3-3-3-6--6-|

Interlude pt.3 (con't)
E|------------------------|-------------------------------|
B|------------------------|-------------------------------|
G|------------------------|-------------------------------|
D|-9--x-5-5--x-5-5-5-5--5-|-9--x-5-5-5-x-5-5--x-----------|
A|-9--x-5-5--x-5-5-5-x--x-|-9--x-5-5-5-x-5-5--x-5-5-7-7-7-|
E|-7--x-3-3--x-3-3-3-6--6-|-7--x-3-3-3-x-3-3--x-6-6-6-6-6-|

Third Chorus (Full distorsion)
E|---------------------------|--------------------------------------|
B|---------------------------|--------------------------------------|
G|-7--7-7--7-7---------------|----------------7*-7*-7*/5*-5*-5*/4*--|
D|-7--7-7--7-7--8-8-8-8--8-8-|--5-5-5-5--5-5------------------------|
A|-5--5-5--5-5--8-8-8-8--8-8-|--5-5-5-5--5-5------------------------|
E|-5--5-5--5-5--6-6-6-6--6-6-|--3-3-3-3--3-3------------------------|
Harm |-------------------|

Third Chorus (con't)
E|---------------------------|----------------------------|
B|---------------------------|----------------------------|
G|-7--7-7--7-7--3-3-3-3--3-3-|----------------------------|
D|-7--7-7--7-7--3-3-3-3--3-3-|--5-5-5-5--5-5--3-3-3-3-3-3-|
A|-5--5-5--5-5--1-1-1-1--1-1-|--5-5-5-5--5-5--3-3-3-3-3-3-|
E|-5--5-5--5-5--1-1-1-1--1-1-|--3-3-3-3--3-3--1-1-1-1-1-1-|

Third Chorus (con't)
E|---------------------------|----------------------------|
B|---------------------------|----------------------------|
G|-7--7-7--7-7--3-3-3-3--3-3-|----------------5-5-5-5-----|
D|-7--7-7--7-7--3-3-3-3--3-3-|--5-5-5-5--5-5--5-5-5-5-5-7-|
A|-5--5-5--5-5--1-1-1-1--1-1-|--5-5-5-5--5-5--3-3-3-3-5-7-|
E|-5--5-5--5-5--1-1-1-1--1-1-|--3-3-3-3--3-3----------3-5-|

Third Chorus (con't)
E|---------------------------|----------------------------|
B|---------------------------|----------------------------|
G|-7--7-7--7-7--3-3-3-3--3-3-|----------------------------|
D|-7--7-7--7-7--3-3-3-3--3-3-|--5-5-5-5--5-5--3-3-3-3-3-3-|
A|-5--5-5--5-5--1-1-1-1--1-1-|--5-5-5-5--5-5--3-3-3-3-3-3-|
E|-5--5-5--5-5--1-1-1-1--1-1-|--3-3-3-3--3-3--1-1-1-1-1-1-|

Outro
E|--------------------------|------------------------------|
B|--------------------------|------------------------------|
G|--------------------------|------------------------------|
D|-9--x-5-5--x-5-5--x-------|-9--x-5-5--x-5-5--x-----------|
A|-9--x-5-5--x-5-5--x-7-7-7-|-9--x-5-5--x-5-5--x-5-5-7-7-7-|
E|-7--x-3-3--x-3-3--x-6-6-6-|-7--x-3-3--x-3-3--x-6-6-6-6-6-| X3
===============================================================================

Log In to leave a comment

After registration we will return you to the same place
Comments
face-with-monocle
If you wait a bit, some comments may appear here...

Shhh...

Most Popular
You Might Like