Loading...
Incubus logo

Drive Incubus

  • 0
  • Share
  • Transposing
    0
  • Font Size
Intro, Verses, and Chorus:
E|-------0-0--------------------------
B|-------8-8------7---------5-5-----5-
G|-------0-0------7---------4-4-------
D|----9-----------5---------5-5-----5-
A|-------------7-------0-3------------
E|-0------------------------------5-5-

Pre-Chorus and Outro:
E|---------------0--0-0-0-0-
B|----5--5--5----2--2-2-2-2-
G|----4--4--4----0--0-0-0-0-
D|----5--5--5----2--2-2-2-2-
A|-3--3--3--3----0--0-0-0-0-
E|--------------------------

Solo:
E|-----7--5-3--5----------------3-5-7-7-5-10-7-5-7-----
B|-5-5------------3-5-5-3-5-5-5--------------------5-3-
G|-----------------------------------------------------
D|-----------------------------------------------------
A|-----------------------------------------------------
E|-----------------------------------------------------

E|-----------5-5-5-3-3------------------
B|-3-5-5 3------------5-5--3-3----------
G|-----------------------------4--2-0-2-
D|--------------------------------------
A|--------------------------------------
E|--------------------------------------

Log In to leave a comment

After registration we will return you to the same place
Comments
face-with-monocle
If you wait a bit, some comments may appear here...

Shhh...

Most Popular
You Might Like