Incubus logo

Clean Incubus

  • 1
  • Share
  • Font Size
Incubus – Clean
Incubus
Clean

Standard Tuning
Effects: Distortion, Tremolo, Wah

Notes in [brakets] are harmonics

Intro:
(start with drums)
Now the intro gets louder and louder each time it is played till its
Full on distortion.
(light distortion)
E:-----------------
B:-----------------
G:-----------------
D:----------------- x4
A:--0h2-2-0-0h2-2--
E:-----------------

Then
(with more distortion)
E:----------------------[7][7][7]--
B:---------------------------------
G:---------------------------------
D:--2/4-4-2-2/4-4--xxxx------------ x8
A:--0/2-2-0-0/2-2--xxxx------------
E:-----------------xxxx------------

Then
(with even more distortion (and mabye a little chorus), and let notes
Ring)
E:-----------------00000000000000000--
B:-----------------5((grad.bend((())--
G:------------------------------------
D:--2/4-4-2-2/4-4--------------------- x4
A:--0/2-2-0-0/2-2---------------------
E:------------------------------------

Then
(with just distortion)
E:-----------
B:-----------
G:-----------
D:--2/4-4-2--
A:--0/2-2-0--
E:-----------

Thats the intro!

Verse:
(with tremolo)
E:-----------
B:--2~-2~----
G:--2~-------
D:--4~--4~---
A:--5~---5~--
E:-----------

Then
E:--7~~-7~-----
B:--10~--10~---
G:--8~~----8~--
D:--9~~--------
A:-------------
E:-------------

Pre-Chorus:
(letting the wah out slowly and then putting it back on quickly at the
End)
>>>>>>>>>>>>>>>>>>>>>>>>>>>>>

Log In to leave a comment

After registration we will return you to the same place
Comments
face-with-monocle
If you wait a bit, some comments may appear here...

Shhh...

Most Popular
You Might Like