Loading...
Immortal logo

Beyond The North Waves Immortal

  • 0
  • Share
  • Transposing
    0
  • Font Size
Immortal - Beyond the North Waves

Tune down 1 whole step

Notes:
Palm muting and tremolo picking are not indicated.

Intro (Part 1)
----------------------------------|----------------------------------|
-8-10-----------------------------|-8-10-----------------------------|
-7--------------------------------|-7--------------------------------|
-0--------------------------------|-0--------------------------------|
----------------------------------|----------------------------------|
----------------------------------|----------------------------------|

----------------------------------|----------------------------------|
-6-8-5----------------------------|----------------------------------|
-7--------------------------------|----------------------------------|
-0--------------------------------|----------------------------------|
----------------------------------|----------------------------------|
----------------------------------|----------------------------------|

----------------------------------|----------------------------------|
-8-10-----------------------------|-8-10-----------------------------|
-7--------------------------------|-7--------------------------------|
-0--------------------------------|-0--------------------------------|
----------------------------------|----------------------------------|
----------------------------------|----------------------------------|

----------------------------------|----------------------------------|
-6-8-5----------------------------|-3--------------------------------|
-7--------------------------------|-7--------------------------------|
-0--------------------------------|-0--------------------------------|
----------------------------------|----------------------------------|
----------------------------------|----------------------------------|

----------------------------------|-10----7--------------------------|
-8-10-----------------------------|-10----9-----11---------------9---|
-7--------------------------------|-7-----7-----7--------------------|
-0--------------------------------|-0-----0-----0--------------------|
----------------------------------|----------------------------------|
----------------------------------|----------------------------------|

----------------------------------|-10----7--------------------------|
-8-10-----------------------------|-10----9-----11-------------------|
-7--------------------------------|-7-----7-----7--------------------|
-0--------------------------------|-0-----0-----0--------------------|
----------------------------------|----------------------------------|
----------------------------------|----------------------------------|

----------------------------------|----------------------------------|
-8-10-----------------------------|-8-10-----------------------------|
-7--------------------------------|-7--------------------------------|
-0--------------------------------|-0--------------------------------|
----------------------------------|----------------------------------|
----------------------------------|----------------------------------|

-10----8--------------------------|
-10----8-----11-------------------|
-7-----7-----7--------------------|
-0-----0-----0--------------------|
----------------------------------|
----------------------------------|

Riff 1 (4 times)
----------------------------------|----------------------------------|
----------------------------------|----------------------------------|
-7-------7--7-7--7-------7--5-5---|-7-------7--7-7--7-------7--5-5---|
-7-------7--7-7--7-------7--5-5---|-7-------7--7-7--7-------7--5-5---|
-5-------5--5-5--5-------5--3-3---|-5-------5--5-5--5-------5--3-3---|
----------------------------------|----------------------------------|

Riff 2
----------------------------------|----------------------------------|
----------------------------------|----------------------------------|
-10-------------------------------|-9-----------------------5--------|
-8--------------------------------|-7-----------------------5--------|
-8--------------------------------|-7-----------------------3--------|
----------------------------------|----------------------------------|

Then play :
Riff 1 (2 times)
Riff 2
Riff 1

Riff 3
----------------------------------|----------------------------------|
----------------------------------|----------------------------------|
-10------10-10-10-10--------------|-5-------5--5-5--5----------------|
-10------10-10-10-10--------------|-5-------5--5-5--5----------------|
-8-------8--8--8--8---------------|-3-------3--3-3--3----------------|
-8-------8--8--8--8---------------|-3-------3--3-3--3----------------|

Then play :
Riff 1
Riff 3

Riff 4
----------------------------------|-5--------------------------------|
----------------------------------|-5--------------------------------|
-7--------------------------------|-7--------------------------------|
-7--------------------------------|-7--------------------------------|
-5--------------------------------|-5--------------------------------|
----------------------------------|-5--------------------------------|

Then play:
Riff 1 (2 times)
Riff 2
Riff 1 (3 times)
Riff 2
Riff 1
Riff 3
Riff 1
Riff 3
Riff 4

Riff 1 (2 times)
Riff 2
Riff 1 (3 times)
Riff 2
Riff 1
Riff 3
Riff 1
Riff 3
Riff 1
Riff 3 (2 times)
Riff 4

Riff 5 (2 times)
----------------------------------|----------------------------------|
----------------------------------|----------------------------------|
----------------------------------|----------------------------------|
---------5------------------------|-5--------------------------------|
-----2---7------------------------|-7--------------------------------|
-0--------------------------------|----------------------------------|

----------------------------------|----------------------------------|
----------------------------------|----------------------------------|
----------------------------------|----------------------------------|
---------6------------------------|-6--------------------------------|
-2---2---7------------------------|-7--------------------------------|
-0---0----------------------------|----------------------------------|

----------------------------------|----------------------------------|
----------------------------------|----------------------------------|
----------------------------------|----------------------------------|
---------5------------------------|-5--------------------------------|
-----2---7------------------------|-7--------------------------------|
-0--------------------------------|----------------------------------|

----------------------------------|----------------------------------|
----------------------------------|----------------------------------|
----------------------------------|----------------------------------|
---------6------------------------|-6-------7------------------------|
-2---2---7------------------------|-7-------8------------------------|
-0---0----------------------------|----------------------------------|

Riff 6 (follow keyboard)
----------------------------------|----------------------------------|
----------------------------------|----------------------------------|
----------------------------------|----------------------------------|
-5-----------------------8---7-8--|-5-------6-------------------5----|
----------------------------------|----------------------------------|
----------------------------------|----------------------------------|

Then play :
Riff 5 (2 times)
Riff 6 (2 times)

Riff 7 (2 times)
----------------------------------|----------------------------------|
---------------------8---6---4----|---------------------8---6---4----|
-5-/-7---7-------7----7---5---5---|-5-/-7---7-------7----7---5-------|
-5-/-7---7-------7-----7---5---5--|-5-/-7---7-------7-----7---5------|
-3-/-5---5-------5----------------|-3-/-5---5-------5----------------|
----------------------------------|----------------------------------|

Riff 8 (2 times)
---------------------6---67--6----|---------------------6---67--6----|
----------------------8-------6---|----------------------8-------6---|
-5-/-7---7-------7----------------|-5-/-7---7-------7----------------|
-5-/-7---7-------7----------------|-5-/-7---7-------7----------------|
----------------------------------|----------------------------------|
----------------------------------|----------------------------------|

Then play
Riff 7 (2 times)
Riff 8 (2 times)
Riff 7 (2 times)

Riff 1 (2 times)

Riff 2 b
----------------------------------|----------------------------------|
----------------------------------|----------------------------------|
-10-------------------------------|-12-------------------------------|
-8--------------------------------|-10-------------------------------|
-8--------------------------------|-10-------------------------------|
----------------------------------|----------------------------------|

Then play :
Riff 1
Riff 2
Riff 1
Riff 3
Riff 1
Riff 3
Riff 1
Riff 3 (2 times)

Ending
----------------------------------|
----------------------------------|
-7--------------------------------|
-7--------------------------------|
-5--------------------------------|
----------------------------------|

Log In to leave a comment

After registration we will return you to the same place
Comments
face-with-monocle
If you wait a bit, some comments may appear here...

Shhh...