Loading...
Idlewild logo

American English Idlewild

  • 0
  • Share
  • Transposing
    0
  • Font Size
Idlewild:    American english
Tabbed by: keith clark 20/6/02
Email: [email protected]

Power Chords
B =799xxx
Abm =466xxx
E =022xxx
F# =244xxx

Intro:
E----------------------------------------
B------12--12----------------------------
G---------------11--11-------------------
D-----------------------14--14--13--13---
A----------------------------------------
E----------------------------------------

Verse: (is the same as the intro)
E----------------------------------------
B------12--12----------------------------
G---------------11--11-------------------
D-----------------------14--14--13--13---
A----------------------------------------
E----------------------------------------

B G#m
Songs when they're truth are all dedicated to you
E B
In this invisible world I choose to live in

B G#m
And if you believe that for now I understand
E
Why words mean so much to you
B
They'll never be about you

B
Maybe you're young without youth
G#m E
Maybe you're old without knowing anything's true
B
I think you're young without youth

Bridge:
E----------------------------------------
B----------------------------------------
G----------------------------------------
D-----8--8--9--9--11--11-9--9------------
A----------------------------------------
E----------------------------------------
Repeat till chorus
F# E
Then you contract the American dream
G#m F#
You never look up once
F# E
You've contracted American dreams
G#m F#
I require you to stop and look up.

Chorus:

B F#
Sing a song about myself
G#m E
Keep singing a song about myself
B F# G#m E
Not some invisible world

Verse: same as before
Constantly searching to find something new
But what will you find when you think that nothing's true
Maybe it's that nothing is new

So you let me hear songs that were written all about you
Because songs weren't written for you
They'll never be about you

Bridge 2: same chords as brigde 1
Then you contract the American dream
You never look up once
You've contracted American dreams
You never look up once, so don't look up

Chorus:
Sing a song about myself
Keep singing a song about myself
Not some invisible world
Sing a song about myself
Keep singing a song about myself
Not some invisible world

Middle 8:
F# E G#m F#
I won't tell you what this means, cause you already know
F# E G#m F#
I won't tell you what this means, cause you already know

Chorus:
Sing a song about myself
Keep singing a song about myself
Not some invisible world
Sing a song about myself
Keep singing a song about myself
Not some invisible world
(so you came along and found the weak spot that you've always wanted…)

Acoustic:
B F# G#m E
B F# G#m E.................... B

Hope this is enough
Sorry couldnt work out tab for the chorus
Please feel free to eamil me with it and ill update it cheers

Log In to leave a comment

After registration we will return you to the same place
Comments
face-with-monocle
If you wait a bit, some comments may appear here...

Shhh...