Loading...
Iced Earth logo

Solitude Iced Earth

  • 0
  • Share
  • Transposing
    0
  • Font Size
Iced Earth:  Solitude

Transcribed by: Russ Elton ([email protected])
edited by: FRIENDLY DEMON [email protected]

FIND EVERY ICED EARTH SONG AND
THE MOST UPDATED VERSION OF THIS SONG AT:

The Frozen Palace
Http://truemetal.org/icedearth/

Date last modified: 10/30/01

PLEASE DO NOT COPY THIS TAB TO ANOTHER SITE
WITHOUT AUTHORS' PERMISSION. THANK YOU.

Tuning: D#

Riff 1 x2
Eb|---------------------------------|
Bb|---------------------------------|
Gb|---------------------0-------0---|
Db|-----5-------5-----4---4---4---4-|
Ab|---7---7---7---7-5-------5-------|
Eb|-0-------0-----------------------|

Riff 2
Guitar 1 x2
Eb|---------------------------------|
Bb|-----0---------------0-----------|
Gb|---5---5---5---5---4---4---4---4-|
Db|-7-------7---7---5-------5---5---|
Ab|---------------------------------|
Eb|---------------------------------|

Eb|-------------0---------------0---|
Bb|-----0---------------0-----------|
Gb|---2---2---2---2---2---2---2---2-|
Db|-3-------3-------3-------3-------|
Ab|---------------------------------|
Eb|---------------------------------|

Eb|---------------------------------|
Bb|-----0-------7-------0-------7---|
Gb|---4---4---4---4---4---4---4---4-|
Db|-5-------5-------5-------5-------|
Ab|---------------------------------|
Eb|---------------------------------|

Guitar 2 x2
Eb|---------------------------------|
Bb|---------------------------------|
Gb|---------------------------------|
Db|-7-------7---7---5-------5---5---|
Ab|---------------------------------|
Eb|---------------------------------|

Eb|---------------------------------|
Bb|---------------------------------|
Gb|---------------------------------|
Db|-3-------3------3-3-------3----3-|
Ab|---------------------------------|
Eb|---------------------------------|

Eb|---------------------------------|
Bb|---------------------------------|
Gb|---------------------------------|
Db|-5-------5------5-5-------5----5-|
Ab|---------------------------------|
Eb|---------------------------------|

Repeat Riffs 1 and 2 until very end, then play:
Eb|------0--|
Bb|------0--|
Gb|------0--|
Db|------5--|
Ab|---7--7--|
Eb|-0-------|

Solo
Guitar 1 x2
Eb|------------------------|
Bb|----8-7-------------7-8-|
Gb|-9------9-----7-7-9-----|
Db|------------------------|
Ab|------------------------|
Eb|------------------------|
x2
Eb|-------------------------7h8-7-|
Bb|----8-7-8-10-------8-7-8-------|
Gb|-7--------------7--------------|
Db|-------------------------------|
Ab|-------------------------------|
Eb|-------------------------------|

Eb|------------------------------------------------|
Bb|------------------------------------------------|
Gb|-7----------------------------------------------|
Db|---10-9-7----------7-9---10-9-7---------------7-|
Ab|------------8-8-10--------------10---7-7-8-10---|
Eb|------------------------------------------------|

Guitar 2 x2
Eb|---------------------------|
Bb|-8-12-10-8---------8-10-12-|
Gb|-------------11-11---------|
Db|---------------------------|
Ab|---------------------------|
Eb|---------------------------|

Eb|------------8---------------10h12-10-|
Bb|-8-12-10-12------8-12-10-12----------|
Gb|-------------------------------------|
Db|-------------------------------------|
Ab|-------------------------------------|
Eb|-------------------------------------|

Eb|-------------------------------------------------|
Bb|-------------------------------------------------|
Gb|-10-9-7--------------7----9-7--------------------|
Db|--------10--7-7-9-10----------10-9--------7-9-10-|
Ab|------------------------------------10-10--------|
Eb|-------------------------------------------------|

Repeat the above lead until end, then play:
Guitar 1
Eb|-----------|
Bb|----8-7----|
Gb|-9------9--|
Db|-----------|
Ab|-----------|
Eb|-----------|

Guitar 2
Eb|------------|
Bb|-8-12-10-8--|
Gb|------------|
Db|------------|
Ab|------------|
Eb|------------|

Notation:
^ = bend [ ^ = half, ^^ = whole, etc. ]
^r = bend and release
X = mute with fret-hand
* = mute with palm-hand
X = pick slide
B = hammer-on
P = pull-off
~ = vibrato
T = tap-on
/ = slide up
= slide down
H. = harmonics
Ah = artificial harmonic
(9) = ghost note
Tm = trem picking
Tr = trill

Log In to leave a comment

After registration we will return you to the same place
Comments
face-with-monocle
If you wait a bit, some comments may appear here...

Shhh...

Most Popular
You Might Like