Iced Earth logo

Angels Holocaust Iced Earth

  • 0
  • Share
  • Font Size
    15
Iced Earth – Angels Holocaust
Artist:          Iced Earth
Title:           Angels Holocaust 2nd Solo
Album:           Night Of The Stormrider
Transcribed by:  Stefanos Danakos
Email:           slaytanic_gr@yahoo.com
Web site:

Beware : This part of the solo is too fast.I wrote it so 1 time playing the backing riff is
         3 whole bars of solo tab.

D#)|---------------------------------------------------------------|
A#)|--17t15p13h15p13-15t14p12h14p12-17t15p13h15p13-15t14p12h14p12--|
F#)|---------------------------------------------------------------|
C#)|---------------------------------------------------------------|
G#)|---------------------------------------------------------------|
D#)|---------------------------------------------------------------|

D#)|---------------------------------------------------------------|
A#)|--17t15p13h15p13-15t14p12h14p12-17t15p13h15p13-15t14p12h14p12--|
F#)|---------------------------------------------------------------|
C#)|---------------------------------------------------------------|
G#)|---------------------------------------------------------------|
D#)|---------------------------------------------------------------|

D#)|--------------------------------------------------------------------------------------------------|
A#)|-18t15p13h15p13-17t14p12h14p12-18t15p13h15p13-17t14p12h14p12-15t14p12h14p12/-20t18--20t17--20t15--|
F#)|--------------------------------------------------------------------------------------------------|
C#)|--------------------------------------------------------------------------------------------------|
G#)|--------------------------------------------------------------------------------------------------|
D#)|--------------------------------------------------------------------------------------------------|

Note : From now on we have 1 time playing the backing riff , 1 bar of solo tab.

D#)|---------------------------------------------------------------------|
A#)|-18-17-15--17--15---------/Half-------------------------------------|
F#)|-------------------17-15-17(18)17-----------/-Half--------r---------|
C#)|---------------------------Semi----18~-----18-(19)-~-~-~-~(18)-sl---|
G#)|----------------------------AH---------------------------------------|
D#)|---------------------------------------------------------------------|

D#)|-----------------------------------------------------------------------------------------------------|
A#)|-----------------------------------------------------------------------------------------------------|
F#)|-16-19-19p16--16--16-16~~---------------------------16h19p16--16-17-16---------19p16-----------------|
C#)|--------------------------16-19-19p16--16--16-16~~-----------------------19p16-------19p16-----------|
G#)|--------------------------------___Semi AH___---------------------------Semi--Semi---------19~-------|
D#)|-------------------------------------------------------------------------AH----AH----AH----AH--------|

D#)|--------------------------------------------------------------------------------------------|
A#)|--------------------------------------------------------------------------------------------|
F#)|--------------------------------------------------16-19-16--16--17-16~~--17-14-14--16~--14--|
C#)|-16-19-19p16--16--17-16~~--16-19-16--16--17-16~~--------------------------------------------|
G#)|---------------------------_________AH________----_________AH________----_______AH________--|
D#)|--------------------------------------------------------------------------------------------|

D#)|-------------------------------------------------------------------------|
A#)|-12-15-12--12-12~--10-14-10--10--14-10~--8-12-8--8--12-8~--10-7-7-8--7---|
F#)|-------------------------------------------------------------------------|
C#)|-------------------------------------------------------------------------|
G#)|-_______AH______---________AH_________---_______AH______---_____AH____---|
D#)|-------------------------------------------------------------------------|

D#)|------------------------------------------------------------------|
A#)|------------------------------------------------------------------|
F#)|-9-7-7-9--7---12-9-9-12--9-----------------------------------7~---|
C#)|-------------------------------------------------------------AH---|
G#)|-____AH____---_____AH_____---9---------10-9-------12-10-9---------|
D#)|-------------------------------12-10-9------12-10---------12------|

D#)|-------14/15~-14------14-------------------------------|
A#)|-12-17------------17-----17-15-------------------------|
F#)|-------------------------------(16)/17~--17---12/14~---|
C#)|--------------------------------*----------------------|
G#)|-------------------------------Ghost-----AH------------|
D#)|-------------------------------note--------------------|

D#)|------------------------------------------------------------------------|
A#)|------------------------------------------------------------------------|
F#)|-14-12-11-12-11-9-11-9-7-9-7-6-7-6---7-6---6-----6----------------------|
C#)|-----------------------------------9-----9---9-7---9-7-9-7-6-7-6---6----|
G#)|---------Semi----------------------------------------------------9---9--|
D#)|----------AH-------------------------____________Random_AH____________--|

Log In to leave a comment

After registration we will return you to the same place
Comments
face-with-monocle
If you wait a bit, some comments may appear here...

Shhh...