I Mother Earth logo

Another Sunday I Mother Earth

  • 2
  • Share
  • Transposing
    0
  • Font Size
    15
I Mother Earth – Another Sunday
Another Sunday - I mother earth
Standard tuning
() means palm muting,
/ means slide up
 means slide down.
X means scratch
B means bend
R means release

Intro (clean dist.)
E---------------------------------------------------------
B---------------------------------------------------------
G--4----------------------3-----3-----3/4--4---3-----3----
D--x----------------------x-----x-----x/x--x---x-----x-x--
A--2-------------(2)-(2)-1-(1)-1-(1)-1/2--2---1-(1)-1-x--
E--3-------------(3)-(3)-2-(2)-2-(2)-2/3--3---2-(2)-2-x--

Verse I
E---------------------------------------------------------------------------
B---------------------------------------------------------------------------
G--4-------------------------3-----3-----3/4--4----------3-----3---------3/-
D--x-------------------------x-----x-----x/x--x----------x-----x---------x/-
A--2-(2)-(2)-(2)-(2)-(2)(1)-1-(1)-1-(1)-1/2--2-(2)-(2)-1-(1)-1-(1)-(2)-1/-
E--3-(3)-(3)-(3)-(3)-(3)(2)-2-(2)-2-(2)-2/3--3-(3)-(3)-2-(2)-2-(2)-(2)-2/-

E---------------------------------------------------------------------------
B---------------------------------------------------------------------------
G--4-------------------------3-----3-----3/4--4----------3-3-3--7-7-8-9----
D--x-------------------------x-----x-----x/x--x----------x-x-x--x-x-x-x-----
A--2-(2)-(2)-(2)-(2)-(2)(1)-1-(1)-1-(1)-1/2--2-(2)-(2)-1-1-1--5-5-6-7----
E--3-(3)-(3)-(3)-(3)-(3)(2)-2-(2)-2-(2)-2/3--3-(3)-(3)-2-2-2--------------

                     x4
E||------------------------------------||
B||------------------------------------||
G||o-4---------43--3-3--7-7-7---8-9-o||
D||o-x---------xx--x-x--x-x-x---x-x--o||
A||--2-(3)-(3)-31--1-1--5-5-5---6-7--||
E||--3-(2)-(2)-22--2-2----------------||
“  On any other day …. “

Pre-Chorus
E-------------------------------------0-----0---------0-----0-------------0---------------
B-------------------------------------0-----0---------0-----0-------------0---------------
G-9-9-9-9-9-9-9-8-8-8-8-8-8-8---------0-----0---------0-----0-------------0----/7-7-7-7-7-
D-9-9-9-9-9-9-9-8-8-8-8-8-8-8-5-5-5-5-5-5-5-5-3-3-3-3-3-3-3-3-2-2-2-2-2-2-2-2--/7-7-7-7-7-
A-7-7-7-7-7-7-7-6-6-6-6-6-6-6-5-5-5-5-5-5-5-5-3-3-3-3-3-3-3-3-2-2-2-2-2-2-2-2--/5-5-5-5-5-
E-----------------------------3-3-3-3-3-3-3-3-1-1-1-1-1—1-1-1-0-0-0-0-0-0-0-0-------------
  P.M. - - - - - - - - - - - - - - - - - - - - - - - - - - - - - - - - - - - - release - |

Chorus (heavy dist.)             x2
E||------------------------------||
B||------------------------------||
G||o-7-7-7---7-7-8-9-----------o||
D||o-7-7-7---7-7-6-9-5--5-5-5--o||
A||--5-5-5---5-5-6-7-5--5-5-5---||
E||-------------------3--3-3-2---||
              (hold note)

E--------------------0--0-0-----------------3-3-3-3-3-3-3-x------------
B--------------------0--0-0-----------------3-3-3-3-3-3-3-x------------
G--7-7-7---7-7-8-9--1--1-1-/7-7-7-7-7-7-7--5-5-5-5-5-5-5-x------------
D--7-7-7---7-7-8-9--2--2-2-/7-7-7-7-7-7-7--5-5-5-5-5-5-5-x-5-5--5-5-5-
A--5-5-5---5-5-6-7--2--2-2-/5-5-5-5-5-5-5--3-3-3-3-3-3-3-x-5-5--5-5-5-
E--------------------0--0-0-----------------3-3-3-3-3-3-3-x-3-3--3-3-2-

                        X2
E||------------------------------||
B||------------------------------||
G||o-7-7-7---7-7-8-9-----------o||
D||o-7-7-7---7-7-6-9-5--5-5-5--o||
A||--5-5-5---5-5-6-7-5--5-5-5---||
E||-------------------3--3-3-2---||

E--------------------0--0-0------------------3-3-3-3-3-3-3-3--3---------
B--------------------0--0-0------------------3-3-3-3-3-3-3-3--3---------
G--7-7-7---7-7-8-9--1--1-1--/7-7-7-7-7-7-7--5-5-5-5-5-5-5-5--0---------
D--7-7-7---7-7-8-9--2--2-2--/7-7-7-7-7-7-7--5-5-5-5-5-5-5-5--0---------
A--5-5-5---5-5-6-7--2--2-2--/5-5-5-5-5-5-5--3-3-3-3-3-3-3-3--2---------
E--------------------0--0-0------------------3-3-3-3-3-3-3-3--3---------
Let ring -|
Verse II (clean w/light dist.)
E------------------------------------------
B------------------------------------------
G--3-----3-----3------4-------3-----3------
D--x-----x-----x------x-------x-----x------
A--1-(1)-1-(1)-1-/(2)-2-------1-(1)-1-(1)--
E--2-(2)-2-(2)-2-/(3)-3-------2-(2)-2-(2)--
      Let ring
                             x4
E||--------------------------------------------||
B||--------------------------------------------||
G||o--4------4b(1/2)4-----3-----3-----3-------o||
D||o--x-------------------x-----x-----x-------o||
A||---2------------------1-(1)-1-(1)-1-/(2)---||
E||---3------------------2-(2)-2-(2)-2-/(3)---||
      Let ring - - - |
                     x4
E||------------------------------------||
B||------------------------------------||
G||o-4---------43--3-3--7-7-7---8-9-o||
D||o-x---------xx--x-x--x-x-x---x-x--o||
A||--2-(3)-(3)-31--1-1--5-5-5---6-7--||
E||--3-(2)-(2)-22--2-2----------------||

Pre-Chorus
E-------------------------------------0-----0---------0-----0-------------0---------------
B-------------------------------------0-----0---------0-----0-------------0---------------
G-9-9-9-9-9-9-9-8-8-8-8-8-8-8---------0-----0---------0-----0-------------0----/7-7-7-7-7-
D-9-9-9-9-9-9-9-8-8-8-8-8-8-8-5-5-5-5-5-5-5-5-3-3-3-3-3-3-3-3-2-2-2-2-2-2-2-2--/7-7-7-7-7-
A-7-7-7-7-7-7-7-6-6-6-6-6-6-6-5-5-5-5-5-5-5-5-3-3-3-3-3-3-3-3-2-2-2-2-2-2-2-2--/5-5-5-5-5-
E-----------------------------3-3-3-3-3-3-3-3-1-1-1-1-1—1-1-1-0-0-0-0-0-0-0-0-------------
  P.M. - - - - - - - - - - - - - - - - - - - - - - - - - - - - - - - - - - - - release - |

Chorus (heavy dist.)            x2
E||------------------------------||
B||------------------------------||
G||o-7-7-7---7-7-8-9-----------o||
D||o-7-7-7---7-7-6-9-5--5-5-5--o||
A||--5-5-5---5-5-6-7-5--5-5-5---||
E||-------------------3--3-3-2---||
              (hold note)

E--------------------0--0-0-----------------3-3-3-3-3-3-3-x------------
B--------------------0--0-0-----------------3-3-3-3-3-3-3-x------------
G--7-7-7---7-7-8-9--1--1-1-/7-7-7-7-7-7-7--5-5-5-5-5-5-5-x------------
D--7-7-7---7-7-8-9--2--2-2-/7-7-7-7-7-7-7--5-5-5-5-5-5-5-x-5-5--5-5-5-
A--5-5-5---5-5-6-7--2--2-2-/5-5-5-5-5-5-5--3-3-3-3-3-3-3-x-5-5--5-5-5-
E--------------------0--0-0-----------------3-3-3-3-3-3-3-x-3-3--3-3-2-

                       X2
E||------------------------------||
B||------------------------------||
G||o-7-7-7---7-7-8-9-----------o||
D||o-7-7-7---7-7-6-9-5--5-5-5--o||
A||--5-5-5---5-5-6-7-5--5-5-5---||
E||-------------------3--3-3-2---||

E--------------------0--0-0------------------3-3-3-3-3-3-3-3------------
B--------------------0--0-0------------------3-3-3-3-3-3-3-3------------
G--7-7-7---7-7-8-9--1--1-1--/7-7-7-7-7-7-7--5-5-5-5-5-5-5-5------------
D--7-7-7---7-7-8-9--2--2-2--/7-7-7-7-7-7-7--5-5-5-5-5-5-5-5----5-5-----
A--5-5-5---5-5-6-7--2--2-2--/5-5-5-5-5-5-5--3-3-3-3-3-3-3-3----5-5-----
E--------------------0--0-0------------------3-3-3-3-3-3-3-3----3-3-----
Let ring -|

Bridge:                 Play 7 times
E---------------------||----------------------------------------||
B---------------------||----------------------------------------||
G---------------------||o--------------------------------------o||
D---------------------||o--------------------------------------o||
A------4b(1/2)-r((4)--||---4b(1/2)-r(4)---4h7---4b(1/2)-r(4)----||
E----0--------------0-||--0--------------0-----0------------0---||

End of Bridge:
E----------------------------------
B----------------------------------
G----------------------------------
D----------------------------------
A-----4b(1/2)-r-(4)---4h7-4h5p4----
E---0----------------0----------7--

Outro Chorus: (heavy dist.)
E---------------------------------------------------------
B-------------------------/12-12-12-12-1210-10-10-10-10-
G--9-9-9-9-97-7-7-7-7-7--/-x--x--x--x--x-x--x--x--x--x-
D--9-9-9-9-97-7-x-x-x-x--/-9--9--9--9--9-7--7--7--7--7-
A--7-7-7-7-75-5-5-5-5-5----------------------------------
E---------------------------------------------------------

E---0--0-0------------------3-3-3-3-3-3-3-3-----------------
B---0--0-0------------------3-3-3-3-3-3-3-3-----------------
G---1--1-1--/7-7-7-7-7-7-7--5-5-5-5-5-5-5-5-----------------
D-x-2--2-2--/7-7-7-7-7-7-7--5-5-5-5-5-5-5-5---5-5---5-5-5-5-
A-x-2--2-2--/5-5-5-5-5-5-5--3-3-3-3-3-3-3-3---5-5---5-5-5-5-
E-x-0--0-0------------------3-3-3-3-3-3-3-3---3-3---3-3-2-2-

E----------------------------
B----------------------------
G-7-7-7---7-7-8-9-----------
D-7-7-7---7-7-6-9-5--5-5-5--
A-5-5-5---5-5-6-7-5--5-5-5--
E------------------3--3-3-2--

E--------------------0--0-0------------------3-3-3-3-3-3-3-3--3---------
B--------------------0--0-0------------------3-3-3-3-3-3-3-3--3---------
G--7-7-7---7-7-8-9--1--1-1--/7-7-7-7-7-7-7--5-5-5-5-5-5-5-5--5---------
D--7-7-7---7-7-8-9--2--2-2--/7-7-7-7-7-7-7--5-5-5-5-5-5-5-5--5---------
A--5-5-5---5-5-6-7--2--2-2--/5-5-5-5-5-5-5--3-3-3-3-3-3-3-3--3---------
E--------------------0--0-0------------------3-3-3-3-3-3-3-3--3---------
                             Hold - - |
Then Strum
E------x---------||
B-----0----------||
G----0-----------||
D---0------------||
A--2-------------||
E-3--------------||
  Hold - - - - - ||

Log In to leave a comment

After registration we will return you to the same place
Comments
face-with-monocle
If you wait a bit, some comments may appear here...

Shhh...